Neil Young - Rockin In The Free World Chords & Tabs

 

Rockin In The Free World Chords & Tabs

Neil Young Chords & Tabs

Version: 2 Type: Bass Tab 0 ratings
1 star 2 stars 3 stars 4 stars 5 stars
comments

Rockin In The Free World Bass Tab

   
ROCKIN' IN THE FREE WORLD
BY NEIL YOUNG
TABBED BY James Ryan

INTRO
				  4X
G|---------------------------------|
D|---------------------------------|
A|---------------------------------|
E|-0-0-0-0-0-0-0-0-0-0-0-0-0-0-0-0-|

VERSE
				  4X
G|---------------------------------|
D|---------------------------------|
A|-----------------5-5-5--3-3-3-3--|
E|-0-0-0-0-0-0-0-0-----------------|
				  4X
G|---------------------------------|
D|---------------------------------|
A|-----------------5-5-5-5-3-3-3-3-|
E|-0-0-0-0-0-0-0-0-----------------|
[ Tab from: http://www.guitartabs.cc/tabs/n/neil_young/rockin_in_the_free_world_btab_ver_2.html ]
CHORUS
							   4X
G|----------------------------------------------------------|
D|----------------------------------------------------------|
A|-----------------5-5-5-5-5-5-5-5-3-3-3-3-3-3-3-3--3-2-----|
E|-3-3-3-3-3-3-3-3--------------------------------------3-0-|

								  1X
G|-----------------------------------------------------------------|
D|-----------------------------------------------------------------|
A|-----------------------------------------------------------------|
E|-5-5-5-5-5-5-5-5-5-5-5-5-5-5-5-5-5-5-5-5-5-5-5-5-5-5-5-5-5-5-5-5-|

SOLO

G|---------------------------------|
D|---------------------------------|
A|-----------------5-5-5-5-3-3-3-3-|
E|-0-0-0-0-0-0-0-0-----------------|

THAT'S ALL      ----PLEASE TAB MORE NEIL YOUNG----
Comments