Neil Young - Rockin In The Free World Chords & Tabs

 

Rockin In The Free World Chords & Tabs

Neil Young Chords & Tabs

Version: 1 Type: Bass Tab 0 ratings
1 star 2 stars 3 stars 4 stars 5 stars
comments

Rockin In The Free World Bass Tab

   
"ROCKIN' IN THE FREE WORLD"
BY NEIL YOUNG
TABBED BY FRANKMAN

                        INTRO/VERSE

G---------------------------------
D---------------------------------
A-----------------5-5-5-5-3-3-3-3- keep repeating
E-0-0-0-0-0-0-0-0-----------------


                        CHORUS
[ Tab from: http://www.guitartabs.cc/tabs/n/neil_young/rockin_in_the_free_world_btab.html ]
G----------------------------------------------------------
D----------------------------------------------------------
A-----------------5-5-5-5-5-5-5-5-3-3-3-3-3-3-3-3--3-2----- play 4 times
E-3-3-3-3-3-3-3-3--------------------------------------3-0-


              OUTRO FROM CHORUS

G-----------------------------------------------------------------
D-----------------------------------------------------------------
A-----------------------------------------------------------------
E-5-5-5-5-5-5-5-5-5-5-5-5-5-5-5-5-5-5-5-5-5-5-5-5-5-5-5-5-5-5-5-5-


FOR THE GUITAR SOLO'S PLAY THE VERSE
Comments