Neil Young - Powderfinger Chords & Tabs

 

Powderfinger Chords & Tabs

Neil Young Chords & Tabs

Version: 1 Type: Bass Tab 0 ratings
1 star 2 stars 3 stars 4 stars 5 stars
comments

Powderfinger Bass Tab

POWDER FINGER
BY NEIL YOUNG
TABBED BY James Ryan
neo@floodcity.net

VERSE
                                                                x4
G|-----------------------------------------------|---------------|--------------|
D|-----------------------------------------------|---------------|--------------|
A|-3-33-3-----3------3-33-3-33-3-----3------3-33-|-3-33-32-22-23-|-5-5-555555---|
E|-------3-33--3-33-3-----------3-33--3-33-3-----|---------------|--------------|

1ST CHORUS

G|----------------------|
D|--5-------------------|
A|----3-3-----3------3--|
E|-------3-33--3-33-3---|
[ Tab from: http://www.guitartabs.cc/tabs/n/neil_young/powderfinger_btab.html ]
ALL OTHER VERSES/SOLOS
                                                                x4
G|----------------------------------------------------|---------------|--------------|
D|----------------------------------------------------|---------------|--------------|
A|-3-33-3-33-3-----3------3-33-3-33-3-----3------3-33-|-3-33-32-22-23-|-5-5-555555---|
E|------------3-33--3-33-3-----------3-33--3-33-3-----|---------------|--------------|

ALL OTHER CHOURS

G|------------------------|
D|--5---------------------|
A|----0-2-3-----3------3--|
E|---------3-33--3-33-3---|



THAT'S ALL      ----PLEASE TAB MORE NEIL YOUNG----
Comments