Neil Young - Ohio Chords & Tabs

 

Ohio Chords & Tabs

Neil Young Chords & Tabs

Version: 3 Type: Tab

Ohio Tab

Ohio

By: Neil Young

Tabbed By: Chase Tiley


e|--------------------------------------|-----------------------------------|
B|--------------------------------------|--------10-------------------------|
G|---------------------------10h12-10---|--10h12----12-10-9/7---------------|
D|------3/5--5/7--7/9--9/12-------------|---------------------7/9-9---------|
A|--3/5---------------------------------|-----------------------------------|
D|--------------------------------------|-----------------------------------|

e|--------------------------------------|-----------------------------------|
B|----13-13-----------------------------|-----------------------------------|
G|-----------12h14--10-12---------------|-----------------------------------|
D|--------------------------------------|-17/15--12-------------15/17-15-12-|
A|--------------------------------------|-----------15p12-15p12-------------|
D|--------------------------------------|-----------------------------------|


Then this one yea man after the chorus

[ Tab from: http://www.guitartabs.cc/tabs/n/neil_young/ohio_tab_ver_3.html ]
   e|3h5--5p3----3---------------------|--3--3--1/3-5-5-5-5-5-5/10-----------|
   B|----------5---5-3-----------------|-------------------------------------|
   G|-------------------5-5------------|-------------------------------------|
   D|----------------------------------|-------------------------------------|
   A|----------------------------------|-------------------------------------|
   D|----------------------------------|-------------------------------------|

   e|----------------------------------|-----------------------------------|
   B|--13b15-15-14-12--14-14-12----12--|-14-14-12--------------------------|
   G|---------------------------14-----|----------14--12h14-14-------------|
   D|----------------------------------|-----------------------------------|
   A|----------------------------------|-----------------------------------|
   D|----------------------------------|-----------------------------------|

   e|----------------------------------|-----------------------------------|
   B|--13-15-15-13-12-12---------------|-----------------------------------|
   G|--------------------14-14-14h16-14|-14-12-----------------------------|
   D|----------------------------------|-------15-14-12--------------------|
   A|----------------------------------|----------------15b17-17-----------|
   D|----------------------------------|-----------------------------------|