Neil Young - Keep On Rockin In The Free World Chords & Tabs

 

Keep On Rockin In The Free World Chords & Tabs

Neil Young Chords & Tabs

Version: 3 Type: Tab 0 ratings
1 star 2 stars 3 stars 4 stars 5 stars
comments

Keep On Rockin In The Free World Tab

   
I havent seen many good tabs for this so i thought id post this up.
I know that this is 100% correct, so enjoy.

Intro
E----------------------
B----------------------
G-----------------7--5-
D-2-2-2-2-2-2-2-2-7--5-  Repeat 4x
A-2-2-2-2-2-2-2-2-5--3-
E-0-0-0-0-0-0-0-0------

Verse

Guitar 1-play intro chords

Guitar 2

E---0-0-----0------2-------0--0-0-0------2-----0
B---------3---3----3------1------3-3-----3-----1
G-------0-------0----2--------------0-----2-----
D-2---------------0---2------2-------2-0----2---  repeat 2x
A---------------------3---------------------3---
E-----------------------------------------------

Guitar 1
E--------------------------------
B--------------------------------
G-------------------------------- repeat 4x behind guitar 2
D--------------------------------
A-2-2-2-2-2-2-2-2-7-7-7-5-5-5-5-5
E-0-0-0-0-0-0-0-0-5-5-5-3-3-3-3-3

Guitar 2
E-0-0-0-0----2---0--0---0
B----3-----------1--1---1
G----------2---2------2--  repeat twice over guitar 1
D----------0---0---2--0--
A------------------3-----
E------------------------

guitar 1 (still going with 4x)

Guitar 2
E--3---3-------2--0---0--0-------0------2--0--0---0
B----3--3---------1---1--1----3----3-------1--1---1
G-0---0--0---2--2------2----0---0---0-2---2-----0--
D---------2--0--0---2--0--------------0---0--3--2--
A-------------------3------------------------2-----
E--------------------------------------------------

Chorus
E---------------------------
B---------------------------
G------7----5---5-2-2-2-----
D-5----7----5---5-2-2-2--5--  repeat x4
A-5----5----3---3-4-4-2--5--
E-3-------------------0--3--

E---------------------------------------
B---------------------------------------
G-5-4-4-2---2--2---------2--------------
D-5-4-4-2---2--2---------2----2-2-2-2-2\
A-3-2-2-2---0--0-----0-0-0----0-0-0-0-0\
E-------0-------------------------------
[ Tab from: http://www.guitartabs.cc/tabs/n/neil_young/keep_on_rockin_in_the_free_world_tab_ver_3.html ]
Guitar 1-play verse chords over guitar 2 solo

guitar 2-solo

E-12-12---12---------------------------------------------15
B-12-12-12--15-15-12--------12--12--12--12--12--------17---
G----12-12-----------14-12~---14--14--14--14--14b-14~------
D----------------------------------------------------------
A----------------------------------------------------------
E----------------------------------------------------------

E-15b--15b--15--15-x-x-12----------------------------------
B------------------------x-x12-----------------------------
G------------------------------(14)-(12)-11------14-12-11--
D-------------------------------------------14-12--------14
A----------------------------------------------------------
E----------------------------------------------------------

E---------------------------------------------------------
B-12------------12------------12--15-12-------------12-15-
G-12-14-12------12------12-14-14b------14b-14-14b-14------
D---------14-12---14--14----------------------------------
A---------------------------------------------------------
E---------------------------------------------------------

E-12b-12b-12b-15--------------12-12--12----15~-15--15-
B-15b-15b-15b--15-12-------------15b-15b-15----18b-15-
G-----------------------------------------------------
D-----------------------------------------------------
A-----------------------------------------------------
E--------------------12-10~~~-------------------------

E-12-12-15--14-12--15-14-12---12-14-12---12-15b-15~~~~~~~~~~~~~
B---------------------------15---------------------------------
G--------------------------------------------------------------
D--------------------------------------------------------------
A--------------------------------------------------------------
E--------------------------------------------------------------

Verse
Chorus
Solo- Im too lazy to tab the second (outro)solo right now so ill do it later.
Comments