Neil Young - Hey Hey My My Chords & Tabs

 

Hey Hey My My Chords & Tabs

Neil Young Chords & Tabs

Version: 2 Type: Tab 0 ratings
1 star 2 stars 3 stars 4 stars 5 stars
comments

Hey Hey My My Tab

   
Hey Hey My My TAB

Heavy Crunch
INTRO

E|--------------------------------------------------------------------|
B|-----------------------------------------------------------------1--|
G|-----------------------------------------------------------------2--|
D|--------------------------0--------------------------------------3--|
A|-----0--0-----2----3--------------2---0-----------0-----------0-----|
E|----------------------------------------------3---------------------|
X2

E|----------------------------------------------------|
B|----------------------------------------------------|
G|-------------------------0---2----0-----------------|
D|----------------0---2-------------------2-----------|
A|------3--3---------------------------------------0--|
E|----------------------------------------------------|


VERSE

Am   G      FM7
Hey hey my my,
Am       G                    FM7
Rock and roll will never die,
C                G                      Am           FM7
There's more to the picture than meets the eye,
Am     G    FM7
Hey hey my my.


SOLO 1

Play the first part of the intro



E|----------12------12------12-------------12---12---12--|
B|----------15b----15b-----15b-----------15b--15b--15b---|
G|-------------------------------------------------------|
D|-------------------------------------------------------|
A|-------------------------------------------------------|
E|-------------------------------------------------------|
X2  b Bend
Play first part of the intro 1ce


VERSE

Am            G                        FM7
Out of the blue and into the black,
Am                 G                    FM7
They give you this but ya' pay for that,
C                       G            Am            FM7
And once you're gone you can't come back,
Am                             G                  FM7
When you're out of the blue and into black.

SOLO 2

E|----0-------------5------------------------------------------------------------|
B|----1-------------5------------------------------------------------------------|
G|----2-------------------7-----5-----------5----------5--------5----------5-----|
D|----2-------------------------------7----------h7---------h7-------h7-------7--|
A|----0--------------------------------------------------------------------------|
E|-----0-------------------------------------------------------------------------|
	                              			           ^      ^       ^
E|------------------------------------------------------------------------------------|
B|------------------------------------------------------------------------------------|
G|-----------------5----------------7b*-------5---------------5-----------------------|
D|-----7--------------7--7------------------------------7---------------------5~~~~~--|
A|---------------------------------------------------------------------7--------------|
E|------------------------------------------------------------------------------------|

* Bend up one step before played and strike it twice
~Whammy Bar
^ Little Hammer on and pulloffs in between

Play part 2 solo 1 again then


E|--------------------------------------------------|
B|--------------------------------------------------|
G|--------------------------------------------------|
D|--------------0---------------0-------------------|
A|--------3---------3----0--3-----------3--------0--|
E|--------------------------------------------------|


VERSE

Am	        G                                       Fmaj7
The king is gone but he's not forgotten (Johnny Rotten  Johnny Rotten),
Am           G                                Fmaj7
Is this the story of Johnny Rotten (Johnny Rotten) Rotten Johnny (Rotten Johnny ooo),
C                 G           Am         Fmaj7
It's better to burn out than to fade away,
Am             G                                     Fmaj7
The king is gone but he's not forgotten.


SOLO 3

[ Tab from: http://www.guitartabs.cc/tabs/n/neil_young/hey_hey_my_my_tab_ver_2.html ]
E|-------------------------------------------------------------------------------------------------|
B|-------------5---8-------------------------------------------------------------------------------|
G|-------------------------5--*---7----------------------------------------------------------------|
D|----------------------------------------5--*---7-------------------------------------------------|
A|-----------------------------------------------------5----*----7---------------------------------|
E|------------------------------------------------------------------------7---------5~~~~~~~~~~~~--|
* Random Hammerons and Pull offs					Choke
~Whammy Bar


	      *
E|-----------------------------------------15~~~~~~~~~~~~~~~~--|
B|-12------15b-----------------17------------------------------|
G|-------------------------------------------------------------|
D|-------------------------------------------------------------|
A|-------------------------------------------------------------|
E|-------------------------------------------------------------|
*Strike five times and bend before each time

E|----12---12---12-----12---12-----12-------------15--15----15---------17~~~~~~~~~--|
B|----15b--15b-15b----15b--15b---15b----------17b--17b--17b-------------------------|
G|----------------------------------------------------------------------------------|
D|----------------------------------------------------------------------------------|
A|----------------------------------------------------------------------------------|
E|----------------------------------------------------------------------------------|
b Bend

E|-----------------------------------------------|
B|-----------------------------------------------|
G|-----------------------------------------------|
D|-----------------------------------------------|
A|------3--0---3---0---------3----0~~~~~~~~~~~~--|
E|-------------------------3---------------------|

VERSE

Am   G        FM7
Hey my,
Am         G                       FM7
Rock and roll will never die,
C                             G          Am                 FM7
There's more to the picture than meets the eye,
Am   G           FM7
Hey hey my my.


SOLO 4

E|-------------------------------------------------------|
B|-------------5-------8-----------5----8--5----------5--|
G|----------------------------7--------------------7-----|
D|-------------------------------------------------------|
A|---0---------------------------------------------------|
E|-------------------------------------------------------|
	|________________________________________________________________|
		Octave effect


E|---------------------------17------------15----15----------------------|
B|-------------------17--------------15-----------------17~~~~~~~~~~~~~--|
G|-----14----------------------------------------------------------------|
D|-----------------------------------------------------------------------|
A|-----------------------------------------------------------------------|
E|-----------------------------------------------------------------------|

E|--12----12----12-------12---12----12----12----12---12-------12----12---12--|
B|--15b--15b---15b-----15b--15b--15b---15b---15b--15b-----15b--15b--15b------|
G|---------------------------------------------------------------------------|
D|---------------------------------------------------------------------------|
A|---------------------------------------------------------------------------|
E|---------------------------------------------------------------------------|
                                  |____________________________________________________|
			Octave effect

E|------------------------------------------------------------------------------(0)--|
B|------------------------------------------------------------------------------(1)--|
G|------------------------------------------------------------------------------(2)--|
D|---------------------0~~~~~~----------------------------------------------(2)------|
A|---0------0--2-3-------------------------2--0------------------------------(0)-----|
E|---------------------------------------------------3~~~~~~----------------(0)------|
* Play the above riff twice as slow
( ) Change your fingers to an A minor chord and whammy it hitting your forearm against the strings

E|-----0--------------------------------------------------------15-----12-------15----12---------|
B|-----1--------------------------------------------------------------------12---------------12--|
G|-----2---------------5---4--------16~~~~~~~~~--------------------------------------------------|
D|-----2-----------------------------------------------------------------------------------------|
A|-----0-----------------------------------------------------------------------------------------|
E|-----0-----------------------------------------------------------------------------------------|
		         *
E|-----15---12--------0~~~~~~------|
B|----------------------1~~~~~~----|
G|----------------------2~~~~~~----|
D|----------------------2~~~~~~----|
A|----------------------0~~~~~~~---|
E|-----------------------0~~~~~~~--|

* First time whammy Second time strike and mute

Notes:
During solos Rythum guitar plays intro riff
During verses Rythum guitar plays intro riff
Comments