Neil Young - Dead Man Chords & Tabs

 

Neil Young Chords & Tabs

Version: 1 Type: Tab 0 ratings
1 star 2 stars 3 stars 4 stars 5 stars
comments

Dead Man Tab

   
neil young - dead man solo (5)
tabbed by joshqwa the gerbil man

this song is BEST played with reverb,
this is not the whole thing but it will get you going...
any adjustments send to  phyre4211@yahoo.com 


Opening Chord (0:17)
  Bm
E----2-----|
B----3-----|
G----4-----|
D----4-----|
A----2-----|
e----0-----|


(0:18 - 0:34)  this part is tightly listed but played slow
      
E-------------------------------------------------------------------|
B-------------------------------------------------------------------|
G---7-9-9s11-9-7--9--9h11---11p9----------11-11--7-9-9s11-9-7-------|
D----------------9-------9------12p11-8s9---------------------9s11--|
A-------------------------------------------------------------------|
e-------------------------------------------------------------------|

(0:35 - 0:48)

E-------------------------------------------0--------------------|
B-------------------------------7--5---------3~~-----------------|
G-------9----9h11~-9-7--9-7----7----7------4---------2h4~~~------|
D--11-12---11--------------9--8------7--4s5----------2h4~~~------|
A----------------------------------------------------2-----------|
e---------------------------------------------------------4~~~---|

(0:50-0:59)
[ Tab from: http://www.guitartabs.cc/tabs/n/neil_young/dead_man_tab.html ]
E----------------------------------------------------------------|
B----------------------------------------------------------------|
G---------------2h4-2-0~~----------------------------2h4-2-0~~---|
D---------------2h4-2-0~~----------------------------2h4-2-0~~---|
A-0-0-2-5-2~~~~~~~-----------0-2-2s5-2-0-2h5-2~~~~~~-------------|
e----------------------------------------------------------------|

(1:00-1:10)

E----------------------------------------------------------------|
B----------------------------------------------------------------|
G-------------------------2h4-2-0~~------------------------------|
D---------1s2-2s4-4s2~~---2h4-2-0~~------------------------------|
A--0-0-2h5------------------------------1h2---0---2~~~-----------|
e----------------------------------------------------------------|

(1:15-1:18)

E----------------------|
B--5h7-----------------|
G--7---------8---------|
D--------9--9-9--------|
A-------10-------------|
e----------------------|

(1:19-)

E--------------------------------------------------------------------|
B--------------------------------------------------------------------|
G--7-9-9s11-9-7----9--9h11---11p9----------11-11--7-9-9s11-9-7-------|
D----------------/9-------9------12p11-8s9---------------------9s11--|
A----------------/9--------------------------------------------------|
e--------------------------------------------------------------------|
Comments