Neil Young - Dead Man Chords & Tabs

 

Dead Man Chords & Tabs

Neil Young Chords & Tabs

Version: 1 Type: Chords 0 ratings
1 star 2 stars 3 stars 4 stars 5 stars
comments

Dead Man Chords

   
----------------------------------------------------------------------------
			     DEAD MAN THEME - Neil Young
----------------------------------------------------------------------------

Tabbed by: Michael Villalon
Email: ElementalAwareness8@hotmail.com


I Noticed there were no chords for this song... Here they are.

Tuning: Normal


Intro - |Bm       |Bm       |

|Bm       |E        |D        |F#       | (Then Play next line)

  (Each Note Is Worth 1 Beat)
e|---2----2----2----2----2----2----2----2|
B|---3----3----3----3----3----3----3----3|
G|---4----3----2----1----0----0----0----0|
D|---4----0----0----2----0----0----0----0|
A|---2---------0-------------------------|
E|---0-----------------------------------|

|Bm   G   |Bm   G   |Bm   G   |Bm       |
[ Tab from: http://www.guitartabs.cc/tabs/n/neil_young/dead_man_crd.html ]
|Bm       |E        |D        |F#       | (Then Play next line)

e|---2----2----2----2----2----2----2----2|
B|---3----3----3----3----3----3----3----3|
G|---4----3----2----1----0----0----0----0|
D|---4----0----0----2----0----0----0----0|
A|---2---------0-------------------------|
E|---0-----------------------------------|

|Bm   G   |Bm   G   |Bm   G   |Bm       |

|Bm       |E        |D        |F#       | (Then Play next line)

e|---2----2----2----2----2----2----2----2|
B|---3----3----3----3----3----3----3----3|
G|---4----3----2----1----0----0----0----0|
D|---4----0----0----2----0----0----0----0|
A|---2---------0-------------------------|
E|---0-----------------------------------|

|Bm   G   |Bm   G   |Bm   G   |Bm       |

|Bm       |Bm       |

|Bm       |E        |D        |F#       |
|Bm       |
Comments