Neil Young - Ambulance Blues Chords & Tabs

 

Ambulance Blues Chords & Tabs

Neil Young Chords & Tabs

Version: 3 Type: Tab 0 ratings
1 star 2 stars 3 stars 4 stars 5 stars
comments

Ambulance Blues Tab

   
Ambulance Blues
On the Beach
Neil Young
The other tabs on this website were all basically right,
but none of them seemed to have the intro/verse tabbed
properly. The strumming pattern is D D U D U D U, and
once you have that the rest is easy. This tab is by no
means complete but at the basic pattern is accurate.

Tuning DGCFGD - All chords relative to the tuning

C   -32010
F   --3211
Am  -02210
Em7 022010
D   --0232
G   320003
Bm  -24432

[ Tab from: http://www.guitartabs.cc/tabs/n/neil_young/ambulance_blues_tab_ver_3.html ]
C
------0h3--3p0----0--------3----0----0-------------|
---------------------------------------------------|
-------------------------0----0----0---------------|
---2-----2-----2-----0h2------2----2---------------|
-3-------------------------------------------------|
---------------------------------------------------|
 D D  U  D U   D  U  D   D U  D U  D U
 F
--------3---1---1--------1---0---0-----------------|
--------1---1---1--------1---0---0-----------------|
-0h2------2---2-------2----2---2-------------------|
(3)--3----3---3-----3------3---3-------------------|
---------------------------------------------------|
---------------------------------------------------|

 Am                 Em7

---------------------------------------------------|
------0h1---1--1-----------3---0--0----------------|
---------------------------------------------------|
---2------2--2----------2----2--2------------------|
-0--------0--0------0h2------0--0------------------|
---------------------------------------------------|

D


--------2---0---0----------2---2-------------------|
--------3---3---3----------3---3-------------------|
-0h2------2---2--------------2---2-----------------|
-----0----0---0--------------0---0-----------------|
------------------------0--------------------------|
--------------------0h2----------------------------|

Struming pattern changes a lot but is easy to figure
out if you play along to the record.

G
Oh, Isabela, proud Isabela,
Am
They tore you down and Plowed you under.
Bm                        C
You're only real With your make-up on
G
How could I see you
D
And stay too long?
Comments