Negrita - Opera Omnia Chords & Tabs

 

Opera Omnia Chords & Tabs

Negrita Chords & Tabs

Version: 1 Type: Tab 0 ratings
1 star 2 stars 3 stars 4 stars 5 stars
comments

Opera Omnia Tab

   
|~~~~~~~~~~~~~~~~~~~~~~~~~~~~~~~~|

|~~~~~~~~~~~MIKI79~~~~~~~~~~~~~~~|

|~~~voltron17@hotmail.com~~~~~~~~|

|~http://members.xoom.it/miki79/~|

|~~~~~~ICQ UIN 30404471~~~~~~~~~~|

|~~~~~~~~~~~~~~~~~~~~~~~~~~~~~~~~|

 

ORDINE CRONOLOGICO DEGLI ALBUM

BLACK OUT

1.CAMBIO

2.BUM BUM BUM

3.MILITARE

4.BONANZA

5.MAN IN THE CORNER

6.R.J. (ANGELO RIBELLE)

7.CORVO NERO

8.RUMORE

9.PEACE FROG

10.LONTANI DAL MONDO

11.NEGRITA

 

PARADISI PER ILLUSI

1.Indie

2.Vai ragazzo vai

3.Oltre il confine

4.Paradisi per illusi

5.War

6.Io sono

 

XXX

Tune: Eb 1/2 step down

1.BONG

2...E INTANTO IL TEMPO PASSA

3.IN UN MARE DI NOIA

4.SEX

5.PER QUELLO CHE DAI

6.544 ESPLANADE

7.MA COME FANNO

8.I MIEI LIMITI

9.XXX

10.HO IMPARATO A SOGNARE

11.ERA MAGICO

12.A MODO MIO

13.IO POCAHONTAS ME LA FAREI

14.LASCIAMI DORMIRE

 

RESET

1.MAMA MAE'

2.NEGATIVO

3.PROVO A DIFENDERMI

4.IN OGNI ATOMO

5.HOLLIWOOD

6.PAPE SATAN

7.TRANSALCOLICO

8.LIFE

9.FRAGILE

10.HALLELUYA

11.

12.CUORE DI CEMENTO

 

 

++++++++++++++++++++++++++++++++++++++++++++++++++++++++++++++++++++++++++++

++++++++++++++++++

BLACKOUTBLACKOUTBLACKOUTBLACKOUTBLACKOUTBLACKOUTBLACKOUTBLACKOUTBLACKOUTBLAC

KOUTBLACKOUTBLACKO

BLACKOUTBLACKOUTBLACKOUTBLACKOUTBLACKOUTBLACKOUTBLACKOUTBLACKOUTBLACKOUTBLAC

KOUTBLACKOUTBLACKO

BLACKOUTBLACKOUTBLACKOUTBLACKOUTBLACKOUTBLACKOUTBLACKOUTBLACKOUTBLACKOUTBLAC

KOUTBLACKOUTBLACKO

BLACKOUTBLACKOUTBLACKOUTBLACKOUTBLACKOUTBLACKOUTBLACKOUTBLACKOUTBLACKOUTBLAC

KOUTBLACKOUTBLACKO

++++++++++++++++++++++++++++++++++++++++++++++++++++++++++++++++++++++++++++

++++++++++++++++++

|------|

|Cambio|

|------|

GRAZIE A Mino

-||----------------------|-----------------|---------------------|------------
-||----------------------|-----------------|---------------------|-----5------
-||-------2-0--------0h2-|-------2-0-------|-------2-0-------0h2-|-7b9---7b9--
-||-----------4-0h2------|-----------4-5-4-|-----------4-0h2-----|------------
-||-3p0-0----------------|-3p0-0-----------|-3p0-0---------------|------------
-||----------------------|-----------------|---------------------|------------

Riff1 (Intro;volume pedal low;overdrive) fast

---------------------------||-------------------------------------------------
-5-8-7-5-7-5h7p5---5-------||-------------------------------------------------
-----------------7---7-5-7-||-------------------------------------------------
---------------------------||-------------------------------------------------
---------------------------||-------------------------------------------------
---------------------------||-------------------------------------------------

D.C. al Fine(2 times, full volume after Intro)

-||---------------------|--------------------|---------------------|----------
-||---------------------|--------------------|---------------------|----------
-||-------2-0-------0h2-|-------2-0---5p4-2v-|-------2-0-------0h2-|----------
-||-----------4-0h2-----|-----------4--------|-----------4-0h2-----|-----5h7--
-||-3p0-0---------------|-3p0-0--------------|-3p0-0---------------|-5h7------
-||---------------------|--------------------|---------------------|----------

Riff2 (full dist) fast

-------------------||---------------------------------------------------------
-------------------||---------------------------------------------------------
-5h7-7b-7b-5-------||---------------------------------------------------------
-------------7-5-7-||---------------------------------------------------------
-------------------||---------------------------------------------------------
-------------------||---------------------------------------------------------

1 time, then Lyrics begin

-||---------------------|-----------------|-----------------|-----------------
-||---------------------|-----------------|-----------------|-7--6--5---------
-||-------2-0-------0h2-|-------2-0-------|-------2-------2-|-5--4--3---------
-||-----------4-0h2-----|-----------4-5-4-|-----------------|-7--6--5---------
-||-3p0-0---------------|-3p0-0-----------|-3p0-0---3p0-0---|-5--4--3------2--
-||---------------------|-----------------|-----------------|----------3h4----

" E tengo il ritmo..." (strofa1) D7 C#7C7

------|----------------------|-------------------|------------------|-5-5-5---
------|----------------------|-------------------|------------------|-7-7-7---
------|-------2---------2----|-------2-----------|-------2-------2v-|-5-5-5---
------|----------------------|-------------4-5-4-|------------------|-7-7-7---
------|-3p0-0---0-3p0-0------|-3p0-0---3p0-------|-3p0-0---3p0-0----|-5-5-5---
-3b-0-|-------------------3b-|-------------------|------------------|---------

palm muting D7

-6---7-7-7-||-----------------------------------------------------------------
-8---9-9-9-||-----------------------------------------------------------------
-6---7-7-7-||-----------------------------------------------------------------
-8---9-9-9-||-----------------------------------------------------------------
-6---7-7-7-||-----------------------------------------------------------------
-----------||-----------------------------------------------------------------

Eb7 E7

Tengo il ritmo e ascolto l'urlo dell'umanit.

che lascia la zona grigia e da domani no no non ci sar.

Chi ha dato tempo al tempo trovi il tempo per scappare via

perchS la gente S stanca S gonfia di rabbia e non S una malattia...

-||---------10-----------5-------5-------5-------5---------|--------10--------
-||--12-----10---------5-------5-------5-------5-----------|-12-----10--------
-||--12-----11-----7b9-----7b9-----7b9-----7b9-----5h7p5---|-12-----11--------
-||--12-----12-------------------------------------------7-|-12-----12--------
-||--10-----12---------------------------------------------|-10-----12--------
-||---------10---------------------------------------------|--------10--------

Rit:"Cambio..." (G/D/A) "Datemi..."

-------12-------12-------12-------12--15b17v-|--3-----------------------------
-12b13----12b13----12b13----12b13------------|--3-----7-----------------------
---------------------------------------------|--4-----7-----5h7p5---5---------
---------------------------------------------|--5-----7-----------7---7v-7-5--
---------------------------------------------|--5-----5-----------------------
---------------------------------------------|--3-----------------------------

"Cambio..."

----------|--3--------------------------------||------------------------------
----------|--3-----7--------------------------||------------------------------
---5------|--4-----7------------2-0-------0h2-||------------------------------
-7---7-6v-|--5-----7----------------4-0h2-----||------------------------------
----------|--5-----5------3p0-0---------------||------------------------------
----------|--3--------------------------------||------------------------------

"Voglio..." follows 1 Riff1 (see above)

Cambio Cambio Cambio di Mentalit.

datemi datemi datemi un'altra identit.

Cambio Cambio Cambio di Mentalit.

-||------------------------|--------------12---------||-----------------------
-||------------------------|--------------12---------||-----------------------
-||--------2-0--------0h2--|--------2-0---12---------||-----------------------
-||------------4-0h2-------|--------------11---------||-----------------------
-||--3p0-0-----------------|--3p0-0-------12---------||-----------------------
-||------------------------|-------------------------||-----------------------

Strofa2"10 100 1000 lenzuola..." A9 (w/wha) follow 3

Strofa,then.

-||----------10------12----|---------10--------------------------------|------
-||---12-----10------12----|---12----10--------8-----8-----8-----8-10v-|------
-||---12-----11------12----|---12----11----8h9---8h9---8h9---8h9-------|------
-||---12-----12------11----|---12----12--------------------------------|------
-||---10-----12------12----|---10----12--------------------------------|------
-||----------10------------|---------10--------------------------------|------

Rit2:"Cambio..." "Datemi..."

----3-------------------------------------|-3-------------||------------------
----3-----7-------------------------------|-3-----7-------||------------------
----4-----7-----5-5-5-5-5-5-5--4h5p4------|-4-----7-------||------------------
----5-----7---------------------------5/7-|-5-----7-------||------------------
----5-----5-------------------------------|-5-----5-------||------------------
----3-------------------------------------|-3-------------||------------------

"Cambio..." w/pick harm "Voglio..."

-||------------------------------------14-14-14--13-12-11-||------------------
-||----------------------5-5-5--7-8-9--13-13-13--12-11-10-||------------------
-||------------1/2-------4-4-4--5-6-7---------------------||------------------
-||----------------3--------------------------------------||------------------
-||--0-2-2/4---------3-0----------------------------------||------------------
-||-------------------------------------------------------||------------------

Bridge (Amin/F/E/D7)

voglio voglio un'altra possibilit.

10 100 1.000 lenzuola ricoprono tutta la via

ribolle la piazza a calci il pattume voglio pulizia

Che no che non sogno ma ne ho bisogno tutti ne hanno bisogno

e provo ad urlare 10.000 palloni volare...

-||----------------------|-----------------|---------------------|------------
-||----------------------|-----------------|---------------------|------------
-||--------2-0-------0h2-|-------2-0-------|-------2-0-------0h2-|-5b---5b----
-||------------4-0h2-----|-----------4-5-4-|-----------4-0h2-----|----7----7--
-||--3p0-0---------------|-3p0-0-----------|-3p0-0---------------|------------
-||----------------------|-----------------|---------------------|------------

Riff before Solo

----------------||---5--5--5--5--5--5--5--5--5----------|-12--x--11/12--12----
----------------||---5--5--5--5--5--5--5--5--5----------|-12--x--11/12--12----
-5b---5b---5b---||---7b-------7b-------7b-------7b-5----|-12--x--11/12--12----
----7----7----7-||-----------------------------------7--|-11--x--10/11--11----
----------------||--------------------------------------|-12--x--11/12--12----
----------------||--------------------------------------|---------------------

Solo (A) A9 Ab9/A9

-12--x--12--|-----------------------------------------|-----------------------
-12--x--12--|--16-15-13----13-----------------13b-----|-----10-----10-----10--
-12--x--12--|-----------14----14-12----12-14--x---14v-|-8h9----8h9----8h9-----
-11--x--11--|-----------------------14--------x-------|-----------------------
-12--x--12--|-----------------------------------------|-----------------------
------------|-----------------------------------------|-----------------------

 
---------------|------------------------|------------------||-----------------
-----10-----8v-|------------------------|------------------||-----------------
-8h9----8h9----|---------2-----------2v-|------------------||-----------------
---------------|------------------------|------------------||-----------------
---------------|-0h2h3-4---3h4-0-3h4----|--5---------4-5-7-||-----------------
---------------|------------------------|----2-3-4-5-------||-----------------

(Hey Joe...) Rit,then...

Cambio Cambio Cambio di Mentalit.

datemi datemi datemi un'altra identit.

Cambio Cambio Cambio di Mentalit.

voglio voglio un'altra possibilit.

-||-----------------||--------------------------------------------------------
-||-----------------||--------------------------------------------------------
-||------2-0--1-2v--||--------------------------------------------------------
-||-----------------||--------------------------------------------------------
-||--3p0------------||--------------------------------------------------------
-||-----------------||--------------------------------------------------------

Finally Email hints to dmt@freemail.it

 

|-----------|

|Bum Bum Bum|

|-----------|

GRAZIE A CHI L'HA POSTATA SU AMOSFREE

C'hanno detto: "State in gamba! perchS un giorno sar. vostro

tutto quello che vedete sar. vostro ad ogni costo

Tanta fede nella fede e questa generazione

pu. far conto sul paese e sulla nostra religione..."

Bum Bum Bum, Bum Bum Bum

C'hanno detto: "Attenti al fumo!" infatti S fumo e mai arrosto"

se al tuo vecchio andava bene credi a NOI S tutto apposto..."

Bum Bum Bum, Bum Bum Bum

Siamo qua ma non ci prenderete mai! C'hanno detto:"State in gamba e state

buoni con le mani

anche se qui la baracca S tutta zeppa di ruffiani

Di bastardi e di ruffiani si, per. Uomini d'Onore!

se pensate che con NOI ci sono i preti e anche le suore..."

Bum Bum Bum, Bum Bum Bum

Siamo qua ma non ci prenderete mai!

Mai... mai... mai...!

 

|--------|

|MILITARE|

|--------|

GRAZIE A CHI L'HA POSTATA SU AMOSFREE

Io al militare non ci voglio andare cosa devo dire cosa devo fare?

Lo voglio dire chiaramente cos? magari qualcuno mi sente

lo so che S un tema ricorrente ma originale perch, personalmente

quand'S il momento, sono convinto quand'S il momento del lieto evento

le sensazioni, chiedi a qualcuno non le dividi con nessuno

Shock!

Dunque al di l. della questione morale perchS potrei anche obiettare

io al militare non ci voglio andare trattamento da uomo, mica da animale

Ragazzi che si sparano o che vengono ammazzati altri escono sfatti o

impazziti

questo , quello che succede veramente ma la gente, la gente, non sa mai

niente

Io al militare non ci voglio andare cosa devo dire cosa devo fare?

Caos!

Questo S un macello, colonnello mi ricoveri al "S. Gallo"

voglio un congedo illimitato altro che patria, altro che soldato

Niente guardia alla polveriera niente niente alzabandiera

niente piastrina di riconoscimento niente picchetto, niente giuramento...

Io al militare non ci voglio andare cosa devo dire cosa devo fare?

 

|-------|

|BONANZA|

|-------|

GRAZIE A CHI L'HA POSTATA SU AMOSFREE

Stanotte scappo mama se torno non lo s.

ma quello che ho rubato non lo restituir.

Ho il mio cavallo adesso e un nome gi- in citt.

sta scritto sulla taglia per chi mi prender....

Mama puoi sentirmi adesso

Cristo era onesto e l'hanno fatto fesso

Stanotte scappo madre se torno non lo s.

ma se ho rubato giuro che lo rifar.

il Paradiso S stretto ma un posto ci sar.

sar. di quel bastardo che se lo comprer.

Mama puoi sentirmi adesso

se c'era un Cristo l'hanno fatto fesso

Solo un'altra ora

poi la notte mi accompagner.

l'orizzonte m'inghiotter.

forse per met.

l'altra rester....

 

|-----------------|

|MAN IN THA CORNER|

|-----------------|

GRAZIE A CHI L'HA POSTATA SU AMOSFREE

Sudore nell' aria sudore nel letto psiko-alterato tengo d' occhio il

soffitto

la stanza mi schiaccia spinta dal mondo che ha intorno cambia la forma

cambia il contorno

Nervi strizzati sotto pressione nel materasso corre l' alta tensione

salta sopra le molle passa sulle pareti sento la puzza dei miei pensieri

bruciati

NASCI man in the corner

CRESCI man in the corner

SPERI man in the corner

MUORI...

Sudore nell' aria sudore nel letto pasticche di fiducia ma non fanno pi-

effetto

solo nell' angolo sempre e ancora di pi- dormi stella dormi almeno tu

Uomo di oggi ieri e dopodomani distanza mentale che ci tiene lontani

sai dove andare ma non da dove passare e quel soffitto che scende non si

vuole fermare...

NASCI man in the corner

CRESCI man in the corner

SPERI man in the corner

MUORI man in the corner

Solo nell' angolo solo nell' angolo sempre e ancora di pi-...

NASCI man in the corner

CRESCI man in the corner

SPERI man in the corner

MUORI man in the corner

 

|---------------------|

|R.J. (Angelo Ribelle)|

|---------------------|

GRAZIE A CHI L'HA POSTATA SU AMOSFREE

Dicono che a 15 anni gi. cominciava a non ridere pi-

dicono che nei suoi panni fosse gi. qualcosa sopravvivere...

il Delta, terra melma e cotone troppo sudore molta dignit.

pianse insieme alla chitarra ruppe la bottiglia e tutto cominci....

Corro corro corro

ma lui mi prender.

sento il fiato sul collo

arriva Satana... (Hellhound on my trail)

Fuori niente luna stanotte proprio la notte adatta a me

scese di corsa al crocicchio pieg. le ginocchia sotto le nuvole...

Attese l'Angelo Ribelle e la chitarra si accord.

mise l' anima in contratto poi strinse i denti e mont. sopra al Blues...

Corro corro corro

ma lui mi prender.

sento il fiato sul collo

arriva Satana...

non s. contare i miei soldi

perchS soldi mai avr.

e il Blues che viene gi-

come la grandine... (Hellhound on my trail)

a Robert Johnson

 

|----------|

|CORVO NERO|

|----------|

GRAZIE A CHI L'HA POSTATA SU AMOSFREE

Chi parla non S morto vive per vivere molto

avr. grigi i capelli grigio il giardino e grigio anche il cuore

ma cerca 100 ragioni per non restare da solo

Dimmi che sei qui devo sentire il calore

sentire che sei qui da solo che paura La solitudine S dura

S come un corvo nella notte scura

Brutto corvo corvo nero

vola senza di me

Chi parla non S morto vive per vivere meglio

dormito tutta la notte ma da rasato ancora pi- stanco

cercare 1000 ragioni per non dormire da soli

Dimmi che sei qui voglio sentire il calore

sentire che sei qui,tu con le tue parole

La solitudine S dura S come un corvo nella notte scura

Brutto corvo corvo nero

vola senza di me...

|------|

|RUMORE|

|------|

GRAZIE A CHI L'HA POSTATA SU AMOSFREE

Sento il bisogno di qualcosa di forte un'emozione che sbatte le porte

ma io lo so dove devo cercare seguo il rumore, non mi posso sbagliare

Rumore viene dalla televisione ventisei pollici d'informazione

eco del mondo che rimpalla sul muro trapassa i nervi, rimbalza canguro

Rumore rumore rumore

mi vibra forte nella testa dolore

Rumore rumore rumore

mi batte in testa come un treno a vapore

Rumore quando guardo il telegiornale arriva all'apice, maldito canale

ma nella testa ormai il rumore rimbomba e quella voce squilla come una

tromba

Mesmerizzato non mi posso voltare eppure voglio, voglio, anzi devo scappare

ma questa sedia S intrisa di colla e quel rumore bastardo non molla

Rumore rumore rumore

mi vibra forte nella testa dolore

Rumore rumore rumore

mi batte in testa come un treno a vapore

 

|----------|

|Peace frog|

|----------|

GRAZIE A CHI L'HA POSTATA SU AMOSFREE

Sangue sulle strade che mi arriva alle caviglie

sangue sulle strade che mi arriva alle ginocchia

sangue che si espande, melma su dal fondo

sangue sulle strade e nei cunicoli del mondo

She came then she drove away

sunlight in her hair... Sangue sulle strade che mi arriva fino al petto

si c'S sangue sulle strade che mi arriva fino al collo

lacrima sbiadisce per un attimo il colore

sangue sulle strade, sangue niente amore

She came then she drove away

sunlight in her hair...

Blood in the street in the town of New Haven

Blood stains the roofs and the palm trees of Venice

Blood in my love in the terrible summer

Bloody red sun of fantastic L.A.

Sangue sulle strade che mi arriva alle caviglie

si c'S sangue sulle strade che mi arriva alle ginocchia

troppo sangue sulle strade che mi arriva fino al petto

sangue sulle strade che mi arriva fino al collo...

 

 

|-----------------|

|LONTANI DAL MONDO|

|-----------------|

GRAZIE A CHI L'HA POSTATA SU AMOSFREE

Seduti in macchina a parlare

mentre vivi la luce che al mattino scompare

questa S l'ora giusta per sognare

quando le frasi vengon fuori da sole

Seduti in macchina a parlare

tanto il mondo si S spento quando hai spento il motore

S proprio l? che mi lascio andare

e dico le cose che non sapevo dire

Che strana la vita basta un p. di calore

Vorrei restare qui vorrei vivere qui per sempre qui

E continuare cos? se mi dici di si continuiamo cosi'

Seduti in macchina a parlare

sul vetro due gocce come fosse un bicchiere

un bicchiere grande che ci guardi dentro

e che niente nasconde tranne questo momento...

Lontani dal mondo lontani abbastanza

Vorrei restare qui vorrei vivere qui per sempre qui

E continuare cos? se mi dici di s? continuiamo cos?

 

 

|------------|

|EHI! NEGRITA|

|------------|

GRAZIE A CHI L'HA POSTATA SU AMOSFREE

E allora ehi Negrita S il blues che balla che ci porta qua

ritmo sangue sangue ritmo e veleno che rokkerrolla sopra le citt....

Noi siamo il fuoco siamo il carnevale senza ma e senza tanti se

saremo un rullo sopra lo stivale date retta a me!

Ehi Negrita!

Ehi Negrita!...

E allora ehi Negrita restare in moto finchS il sogno resiste

cinque dottori per curare la peste cinque tamburi dentro a cinque teste...

Provincia insonne batte in tempo reale allarga lo sguardo campo totale

ed anche l'acqua brucer. prima o poi date retta a noi!

Ehi Negrita!

Ehi Negrita!...

Noi siamo il fuoco siamo il carnevale saremo il rullo sopra lo stivale

restare in moto finchS il sogno resiste cinque dottori per curare la

peste...

Noi siamo il fuoco siamo il carnevale saremo il rullo sopra lo stivale

restare in moto finchS il sogno resiste cinque tamburi dentro a cinque

teste!

 

Ehi Negrita!

Ehi Negrita...

Ehi Negrita!

Ehi Negrita...

 

++++++++++++++++++++++++++++++++++++++++++++++++++++++++++++++++++++++++++++

++++++++++++++++++

PARADISIPERILLUSIPARADISIPERILLUSIPARADISIPERILLUSIPARADISIPERILLUSIPARADISI

PERILLUSIPARADISIP

PARADISIPERILLUSIPARADISIPERILLUSIPARADISIPERILLUSIPARADISIPERILLUSIPARADISI

PERILLUSIPARADISIP

PARADISIPERILLUSIPARADISIPERILLUSIPARADISIPERILLUSIPARADISIPERILLUSIPARADISI

PERILLUSIPARADISIP

PARADISIPERILLUSIPARADISIPERILLUSIPARADISIPERILLUSIPARADISIPERILLUSIPARADISI

PERILLUSIPARADISIP

PARADISIPERILLUSIPARADISIPERILLUSIPARADISIPERILLUSIPARADISIPERILLUSIPARADISI

PERILLUSIPARADISIP

++++++++++++++++++++++++++++++++++++++++++++++++++++++++++++++++++++++++++++

++++++++++++++++++

|-----|

|INDIE|

|-----|

GRAZIE A CHI L'HA POSTATA SU AMOSFREE

Senza freni e senza poesia anni e mesi in anestesia

scivolando sopra i tab- senza patria, senza trib-

Tutto torna, tutto va miscellanea della realt.

corse all'oro ovunque sei guarda avanti e non voltarti mai

Quello che cerco non ha un nome

Quello che cerco non ha et.

Quando il buio bacia il sole

Quello che cerco arriver.

Senza tempo e senza dio (questa S) Babilonia fratello mio

ricchi premi e cotillon per chi ha fiato e per chi invece no...

Quello che cerco non ha un nome

Quello che cerco non ha et.

Quando il buio bacia il sole

Quello che cerco arriver.

 

 

|----------------|

|VAI, RAGAZZO VAI|

|----------------|

GRAZIE A CHI L'HA POSTATA SU AMOSFREE

Non c'S niente da fare, non c'S niente da dire

fermo in questo posto io mi sento morire

spengo gli occhi un momento e provo ad urlare

ma non mi esce la voce, esce un suono animale

ch'entra nelle finestre e sbatte nella membrana

che avvolge la gente e la porta lontana

lontana da tutto, tanto da non sentire

me che fermo in questo posto... mi sento morire.

Fermo in questo posto la visuale S scarsa

fermo a una stazione aspetto la mia corsa

che mi porter. dove e chi S che lo sa?

dove questo treno arriver.

chi lo sa qual'S il percorso intestinale

che da adolescenti si deve affrontare

quando ti stai cagando sotto alla tua prima partita

d'adolescente che s'affaccia alla vita...

Vai, Vai Ragazzo Vai...

Vai, Vai Ragazzo Vai...

ti senti impotente di fronte alla vita

ti senti una rosa in un campo di ortica

che sei tutto e sei niente sei la cima sei il fondo

sul mondo... tondo............... vai.......

Non c'S niente da fare, non c'S niente da dire

fermo in questo posto io mi sento impazzire

schiaccio una farfalla perchS lei pu. volare

poi mi sento un verme nell'impasse totale

raccolgo le ali e me le metto addosso

ma c'S troppa afa e comunque non posso

staccarmi da terra sperando di non sentire

me che fermo in questo posto... mi sento morire

Vai, Vai Ragazzo Vai...

Vai, Vai Ragazzo Vai...

 

|----------------|

|OLTRE IL CONFINE|

|----------------|

GRAZIE A CHI L'HA POSTATA SU AMOSFREE

Giro nella notte forte che questo tempo non mi avr.

ormai il contratto S gi. firmato sono tutelato, sono assicurato

un dio mi ha dato l'immunit. e questo tempo non mi avr. mai

Ho l'indirizzo del destino lui sa che ha poca strada ormai

e scivolo senza materia senza rimpianti e senza meta

la stanza gira nella testa la testa mi esce dalla stanza e va...

La stanza vibra nella testa

la testa vola dalla stanza via...

Oltre il muro oltre il confine oltre il mondo oltre la fine

Oltre il muro oltre il confine

Mi tiro fuori da questo gioco non ho pi- ruolo non c'S pi- scopo

pedina persa lascia la corsa a voi signori i debiti

e non c'S niente da capire e non c'S niente da cambiare ormai

Un dio mi ha dato l'immunit.

e questo tempo non mi avr. mai

Oltre il muro oltre il confine oltre il mondo oltre la fine

Oltre il muro oltre il confine oltre il mondo oltre la fine

Oltre il mondo oltre la fine

Oltre il mondo oltre la fine

 

 

|-------------------|

|PARADISI PER ILLUSI|

|-------------------|

GRAZIE A CHI L'HA POSTATA SU AMOSFREE

Oggi S un nuovo giorno oggi un'altro show

che pi- mi giro intorno pi- so' che ruolo avr.

comparsa senza causa attore senza dio

Tra mille teste in menopausa traumatizzate da ronzio

Risveglio ad induzione azione e CIAK ci sei

t'aspetti l'occasione che non t'arriva mai

sorrisi da copione buongiorno come sta?

In fin dei conti me la cavo in fin dei conti chi lo sa?

Mother, father, sister, brother, ho un taglio nell'anima

Mother, father, sister, brother, ho un taglio nell'anima

Oggi S un nuovo giorno che piove su di noi

amico sei all'inferno ma l'inferno siamo noi

modifica la parte stravolgi la regia

Soggetto in controcampo che dissolve e scappa via

Mother, father, sister, brother, ho un taglio nell'anima

Mother, father, sister, brother, ho un taglio nell'anima

Paradisi per illusi

 

|---|

|WAR|

|---|

GRAZIE A CHI L'HA POSTATA SU AMOSFREE

Ho bello chiaro in testa quel che va e non va.

Quello che risulta, quello che si sa

non tiene affatto fede al corso degli eventi

non tiene fede affatto ai veri avvenimenti...

mai... mai...

La carta stampata fresca di giornata

rimbalza nell'edicole e comincia la crociata

alle verit., alle ambiguit.,

a quello che si S detto a quello che sar.

e va... ovunque va...

Ma qual'S il ruolo dell'informazione ?

e chi pilota quest'aberrazione ?

chi dirige questo gioco bestiale-virtuale ?...it's only...

WAR!!

nella corsa al Trono

nella corsa al Trono

I say... WAR!!

nella corsa al Trono

a chi spetta il Trono

PerchS anche se mi schiero difendendo un pensiero

dico quel che penso e lo penso sul serio

confutando i fatti aldil. delle opinioni

dell'azienda, del mercato, del partito dei padroni

del padrone...

Ma qual'S il ruolo dell'informazione ?

e chi pilota quest'aberrazione ?

chi dirige questo sabba infernale-fatale ?...it's only...

WAR!!

nella corsa al Trono

nella corsa al Trono

I say... WAR!!

nella corsa al Trono

a chi spetta il Trono

I say... WAR

Trouble in my head, trouble in my head trouble...

Trouble in my head, trouble in my head trouble...

Trouble in my head, trouble in my head trouble...

Trouble in my head, trouble in my head trouble...

 

|-------|

|IO SONO|

|-------|

GRAZIE A CHI L'HA POSTATA SU AMOSFREE

Vedo il mondo a tutto tondo che rimbalza sopra e sotto di me..

Vedo il mondo e sullo sfondo biondo il sole che si S spento eiS...

Tutt' intorno piove un cielo fatto a cerchi in bianco e nero, e Chagall...

Su una nuvola di fiori suona musica a colori per me...

che mentre canto...

Sono il tempo, Sono il vento, Sono Dio...

Sono l'acqua, Sono il fuoco, Solo Io...

Sono il sesso, L' Universo, E' solo mio...che mentre canto sono... Vedo il

mondo a tutto tondo rotolare sopra un'onda laggi-

Vedo il mondo che va a fondo su una zattera di piombo e bamb-... e bamb-...

Sopra l'acqua che S di vetro, la ribalta di un teatro e pi- in l....

Su di un palco, Re, Regine e diecimila ballerine per me...

che mentre canto...

Sono il tempo, Sono il vento, Sono Dio...

Sono l'acqua, Sono il fuoco, Solo Io...

Sono il sesso, L' Universo, E' solo mio...che mentre canto sono...

 

 

|---------------------------|

|...E INTANTO IL TEMPO PASSA|

|---------------------------|

GRAZIE A Gilmour, ovvero Andrea Iacoangeli

-------------------------------------------------------------
-------------------------------------------------------------
----------------------------------------------------------8--
-------5H65------------5H65-----------5H65----------5H6/8----
---6-6-------646--4-4-------646------------646--6-6----------
---------------------------------4-4-------------------------

E D

Bambini bambini bambini avanti basta andatevene via

A E

che tanto S inutile giocare che tanto S tutta una grossa bugia

E fuori l'inverno S cattivo brucia la terra, brucia l'energia

e nei cappotti i vecchi infreddoliti pregano Dio che se li porti via (che se

li porti via...)

E c'蠣hi aspetta una vita in un bar quella schedina che non uscir࠭ai

ma intanto spera che aspettando si risolvano i suoi guai

Ma quante sere passate a parlare a ragionare sulla demagogia

Bambini bambini pregate che arrivi il vento e se la porti via (questa

democrazia)

D A E

...E intanto il tempo passa e non gli frega niente

di te che sopravvivi come un deficiente

D A C#

...E intanto il tempo passa svelto e indifferente

D

lo vedi andare via...

A E

lo vedi fuggire via

D E

via... via...

E tra poco arriverࠎatale con quell'albero in plastica che non ne
e la gente aspetta un anno migliore per poterlo guardare in TV

Questa TV che NON C'蠍AI NIENTE! che c'蠓OLO STRONZATE E VIA!

ma questa sera tutti al televisore che c'蠐ippo, che ci porta via... (e

cos젳ia)

...E intanto il tempo passa e non gli frega niente

di te che sopravvivi come un deficiente

...E intanto il tempo passa svelto e indifferente

lo vedi andare via...

lo vedi fuggire via

via... via...

e intanto il tempo passa

e intanto il tempo va

e intanto il tempo passa e se ne va... e se ne va

 

|------------------|

|In un mare di noia|

|------------------|

GRAZIE A "Lorenz" 

G

Qualche giorno Bastardo lo passo da me

rintanato e rinchiuso lo passo cos?

E C

Cos? stanco di tutto e di tutti chiss....

G

questi giorni son giorni che vivo a met.

E viaggio in un mondo che forse non c'S

tra cent'anni di libri e i miei sogni da star

D C

e un bagaglio di giochi truccati perch,

G

non mi viene la vita che voglio per me

D C G

...che fatica nuotare in un mare di noia...

D C G

senza pinne e senz'aria in un mare di noia... di noia...

E telefono a caso a qualcuno che pu.

regalarmi un momento di tempo che ha

E C

per morire un po' meno da solo...qui

G

Certi giorni son giorni che vivo cos?

...che fatica nuotare in un mare di noia...

senza pinne e senz'aria in un mare di noia...

nel solo G E C G

...che fatica nuotare in un mare di noia...

senza pinne e senz'aria in un mare di noia...

...che fatica nuotare in un mare di noia...

seeeeeeeenza pinne e senz'ariaaaaaaaaa ...

lalalalalalalalalalalallalalalala

eeeeee la noia... la noia..

 

|---|

|SEX|

|---|

GRAZIE A RED

 

La Re Fa#m Mi La Re Fa#m Mi

-------|-------------------|-------------4-------------------------|-------------|
-------|---5-------5-------|---5-----------5-5-----5-------5-------|---5-----5---|
---2-4-|/6---4-(4)---4-2-4/|-6---4-4-(4)-------4/6---4-(4)---4-2-4/|-6---4-4---4-|  X 2
-4-----|-------------------|---------------------------------------|-------------|
-------|-------------------|---------------------------------------|-------------|
-------|-------------------|---------------------------------------|-------------|

La Re Re La

--------------------------|
---------5-3-(3)-3--------|
-2-(4)/6---2-(2)-2--2-(2)-|
-----------0-(0)-0--2-(2)-|
--------------------0-(0)-|
--------------------------|

La Mi/La Re

Fare sesso nascosti in un cesso fumarsi una Marlboro dopo l'amplesso oppure

farlo in

----------------------------------------------|--------------------------------------|
----------------------------------------------|-3-----------3----(3)p2-2-------------|
-----2-----------------1----(1)---2-----------|-2-2---------2----(2)-----------------|
-----------------------2----(2)----------0----|-0----0------0----(0)-----------------|
--------------0-------------------------------|-----------------------------0--------|
----------------------------------------------|--------------------------------------|

La Mi/La Re

macchina di fianco alla strada buscarsi un raffreddore male che vada

sentirsi un po'

----------------------------------------------|--------------------------------------|
----------------------------------------------|---3---------3----(3)-2---------------|
-2------------------1------(1)----2-----------|---2--2------2----(2)----2------------|
-2----2-------------2------(2)----2--------0--|---0----0----0----(0)--------------2--|
-0----------0------------------0--------------|--------------------------------------|
----------------------------------------------|--------------------------------------|

 

Sim Re La

animale, un po' primitivi sentire che respiri, sentire che vivi.

-------------------------------------|------------2--------------------|---------------
------------3----------------3----0--|--3---------3---------------3--0-|----------5----
---4--------4----------------4----0--|--2---------2---------------2--2-|-2(4)/6--------
---4--------4----------------4----0--|--0---------0---------------0--0-|---------------
---2--------2----------------2-------|---------------------------------|---------------
-------------------------------------|---------------------------------|---------------

Re Re La

--------------------|
--3-(3)-3-3---------|
--2-(2)-2-2---2-(2)-|
--0-(0)-0-0-0-2-(2)-|
--------------0-(0)-|
--------------------|

La Mi/La Re

E convincere i tuoi ad andare in vacanza spedirli un giorno al mare e farlo

in ogni stanza

La Mi/La Re

provare le ricette, collaudare la cucina usare la Nutella, usare la farina

Sim Re

gardare il suo corpo e scoprirne la forma sentire dei passi... e qualcuno

che torna....

----------------|---------------------------------------|-----------------2---------2----|
----------------|---------------------------------------|-3---------------3---------3----|
----------------|-4---------4----2----(2)----4----------|-2---------------2---------2-2-4|
----------------|-4---------4----2----(2)----4----0-----|-0----------0-------------------|
----------------|-2---------2-------------2-------------|--------------------------------|
----------------|---------------------------------------|--------------------------------|

-

Riff. iniziale

-

La Mi/La Re

Fare sesso, succhiarne la polpa e via la vergogna e i sensi di colpa

sdraiarsi sulla

La Mi/La Re

sabbia, rotolarsi nel fango carezzarne le gambe, improvvisarsi in un tango

annusarne la

Sim Re

pelle,scoprirne l'odore passare dal sesso a fare l'amore... E

La Mi Fa#m Re La Mi

Re Mi

altro che l'America... altro che la musica... quando sei selvatica... altro

che l'America

----------------------|----------------------|-------------------------|2-----2-----------|
----------------------|-------------3--------|----------------------X-X|3-----3-----------|
----------------------|-------------2---2--2-|--------------------1-X-X|2-----2--------2-4|
-------------------2--|------4------0-2----0-|2---2--2--2---2-----2-X-X|0-----0------2----|
7--7--7--7-------2---2|4-4-----4-------------|0---0--0--0---2--2--2----|-------------2----|
5--5--5--5----0-------|2---------------------|--------------0----------|-------------0----|

La Mi Fa#m Mi La Mi Fa#m Mi che l'America! E

-------------------------|----------------4---------|----------------------|-------------|
----5----------5---------|---5---------------5--5---|---5--------5---------|---5----5----|
/6-----4--(4)-----4--2--4/6-----4--4-(4)-----------4/6----4-(4)-----4--2--4/6----4-----4-|
-------------------------|--------------------------|----------------------|-------------|
-------------------------|--------------------------|----------------------|-------------|
-------------------------|--------------------------|----------------------|-------------|

Re2 Re Mi

vivere una notte lunga una vita e avere il suo profumo ancora tra le dita

svegliarsi
[ Tab from: http://www.guitartabs.cc/tabs/n/negrita/opera_omnia_tab.html ]
------------------------------------------------|----------------------------------------|
-----------3------------------------------------|----------------------------------------|
-----------2------------------------------------|----------------------------------------|
-----------0------------------------------------|-2--------------------------------------|
------------------------------------------------|-2--------------------------------------|
------------------------------------------------|-0--------------------------------------|

Sim11 Re2 Mi

affamati e rifarlo per ore passare dal sesso a fare l'amore E

---------------------------------------|-----------------------0------------------|------
---------------------------------------|-3---------------------0------------------|------
----2----------------------------------|-2---------------------1------------------|------
----2----------------------------------|-0--------------2---2--2------------------|------
----0----------------------------------|----------------2---2--2------------------|------
---------------------------------------|----------------0---0--0------------------|------

 

 

La Mi Fa#m Re La Mi Re

Mi

altro che l'America... altro che la musica... quando sei selvatica... altro

che l'America

----------------------|----------------------|-------------------------|2-----2-----------|
----------------------|-------------3--------|----------------------X-X|3-----3-----------|
----------------------|-------------2---2--2-|--------------------1-X-X|2-----2--------2-4|
-------------------2--|------4------0-2----0-|2---2--2--2---2-----2-X-X|0-----0------2----|
7--7--7--7-------2---2|4-4-----4-------------|0---0--0--0---2--2--2----|-------------2----|
5--5--5--5----0-------|2---------------------|--------------0----------|-------------0----|

che l'America!

-------------------------|----------------4---------|----------------------|-------------|
----5----------5---------|---5---------------5--5---|---5--------5---------|---5----5----|
/6-----4--(4)-----4--2--4/6-----4--4-(4)-----------4/6----4-(4)-----4--2--4/6----4-----4-|
-------------------------|--------------------------|----------------------|-------------|
-------------------------|--------------------------|----------------------|-------------|
-------------------------|--------------------------|----------------------|-------------|

Re Mi Re Mi

---0-----2(2)0------|--0---0------0------|--0-----2(2)-0------|--0---0------0------------|
--------------------|--------------------|--------------------|--------------------------|
/6---4-2-------1-2-4/6---4---2(2)---1-2-4/6---4-2--------1-2-4/6---4---2(2)---1-2-4------|
--------------------|--------------------|--------------------|--------------------------|
--------------------|--------------------|--------------------|--------------------------|
--------------------|\-------------------|--------------------|--------------------------|

Sim Re Mi La5

-----0-----0-----0-----0------|----0-----0-----0-----0--------||
------------------------------|-------------------------------||
-4/6---4/6---4/6---4/6---6\4-2|4/6---4/6---4/6---4/6---6\4--2-||
------------------------------|-----------------------------2-||
------------------------------|-----------------------------0-||
------------------------------|\------------------------------||

|------------------|

|PER QUELLO CHE DAI|

|------------------|

GRAZIE A GILMOUR

SOL# SOL- SOL# SOL# SOL- SOL#

SOL#

E quando tutto 蠳tanco e quando tutto 蠳torto

FA- DO#

e quando tutto 蠦ermo in un binario morto...

SOL# SOL- SOL# SOL# SOL- SOL#

chiami me, chiami me chiami me, chiami me

E quando crollano i nervi per tutti i giorni che perdi

e quando tutto 蠲otto se torni a casa cotto

chiami me, chiami me chiami me, chiami me

DO# DO SIb

Ma per quello che dai

vuoi troppo e lo sai

DO# RE# SOL# SOL- SOL# ...

E quando servi a qualcuno non ci sei mai

E quando tutto 蠳bagliato e se sei stato tradito

e quando tutto 蠣onfuso che c'hai battuto col muso

chiami me, chiami me chiami me, chiami me

Ma per quello che dai

vuoi troppo e lo sai

E quando servi a qualcuno non ci sei mai

Ma per quello che dai

vuoi troppo e lo sai

E quando servi a qualcuno non ci sei mai

E quando servi a qualcuno non ci sei mai

E quando servi a qualcuno...

E quando servi a qualcuno...

E quando servi a qualcuno...non ci sei mai!!

 

|-------------|

|544 ESPLANADE|

|-------------|

(instrumental)

 

|-------------|

|MA COME FANNO|

|-------------|

GRAZIE A CHI L'HA POSTATA SU AMOSFREE

Piove sull'asfalto e mi piove sul caffS

stasera la finestra S un cinema d'essai

che basta guardare fuori e la pellicola v. senza pubblicit.

Il ristorante S zeppo e loro l? in attesa

che esca una coppia per piazzare una rosa

e se rifiuti S un sorriso il solo conto che danno

ma come fanno dimmi come fanno

Ma come fanno a continuare

a farsi sempre umiliare

e a morire per quattro lire...

Ma come fanno

Dimmi come fanno

E io dalla finestra di questa mansarda

che guardo gi- fuori e mi sento un po' merda

e mi sento anche in colpa per la forza che c'hanno

ma come fanno dimmi come cazzo fanno

Ma come fanno a continuare

a farsi sempre umiliare

e a morire per quattro lire...

ma come fanno

tu dimmi come fanno

Ma come fanno a continuare

a farsi sempre umiliare

e a morire per quattro lire...

Ma come fanno a sopportare

come fanno a continuare...

Ma come fanno...

 

 

|-------------|

|I MIEI LIMITI|

|-------------|

GRAZIE A CHI L'HA POSTATA SU AMOSFREE

Dovrei guardarmi da lontano per capire qualcosa in pi-

e poi staccarmi dal divano e non compatirmi pi-

Dovrei sentirmi pi- sicuro e avere un po' pi- fede in me

e poi cercare di capire cosa non va bene e perch鍊
" LIMITO I MIEI LIMITI "

" LIMITO I MIEI LIMITI "

Dovrei sapermi controllare quando la mia testa non v.

e confidarmi con qualcuno che da me... faccio piet?
Dovrei sapermi analizzare ed essere il pi- onesto che c'鮮.

e smettere di fare il duro ed essere pi?onzo con me

" LIMITO I MIEI LIMITI "

" LIMITO I MIEI LIMITI "

" LIMITO I MIEI LIMITI "

" LIMITO I MIEI LIMITI "

 

|---|

|XXX|

|---|

Di uscire e andare in piazza non mi va per niente

ma ci devo andare o qui divento demente

come devo fare, non posso mica rimanere

senza sigarette, senza avere da fumare... MAI!!

avere da fumare mai

senza avere da fumare... MAI!!

Appena fuori casa, lo sai chi ti vedo?

La Signora Gazzettino che mi punta da dietro

troppo tardi amico, sei stato colpito

indicato, giudicato sotto i colpi di quel dito... ORMAI!!

i colpi di quel dito ormai

sotto i colpi di quel dito... ORMAI!!

"Senti figliolo" mi fa, "Penso che per la tua etம.

sei messo male... non sei mica un bambino...

tutte quelle collane... quell'orecchino...

sarai mica finocchio? sarai mica drogato?

io ti conosco da quando sei nato...MAH?! (chissࠤove si finir࿩"

Io le sorrido e la lascio passare

e penso a suo nipote che si fa le pere...

e vado via... e vado via!

Il tabacchi S allo scoperto e io mi devo avvicinare

e tutto a un tratto me lo vedo arrivare

Lo sceriffo del paese con i suoi aiutanti

che sarebbe il macellaio ed altri quattro passanti... GUAI!!!

prevedo solamente guai... prevedo solamente guai...

infatti:

"Senti ragazzo" mi fa "Questa e la nostra citt?
e ne siamo fieri non ci dare pensieri

tutte queste stronzate che ti sento cantare

invece di lavorare invece di lavorare

come tutte le persone che si fanno rispettare... GUAI!!

(da te m'aspetto solo guai!)"

io non lo cago ma riesco a passare

in mezzo alle battute e alla risata generale.....CIAO.

 

|---------------------|

|HO IMPARATO A SOGNARE|

|---------------------|

GRAZIE A 

 

Armonica un'ottava sopra

Mi Fa#m11 La2 Mi

---------------------------|------------------|----------------------|-----||
---------------------------|------------------|----------------------|-----||
-----14--13--9-(9)-11--13--|--14------13---9--|--14--13--9-(9)-4--6--|--9--||
---------------------------|------------------|----------------------|-----||
---------------------------|------------------|----------------------|-----||
---------------------------|------------------|----------------------|-----||

Mi Fa#m11 La2 Mi

Ho imparato a sognare che non ero bambino che non ero neanche un' eta'

Fa#m11 La2

Mi

quando un giorno di scuola mi durava una vita e il mio mondo finiva un

po' la'.

La2 Mi7+/Sol# Fa#m11

Mi Mi4Mi

Tra quel prete palloso che ci dava da fare e il pallone che andava

come fosse a motore.

La2 La7+/9 Fa#m11 Si Mi

C'era chi era incapace a sognare e chi sognava gia'.

 

Mi Fa#m11 La2

Mi

Ho imparato a sognare e ho iniziato a sperare che chi c'ha d'avere

avra'.

Fa#m11 La2

Mi

Ho imparato a sognare quando un sogno e' un cannone, che se sogni ne

ammazzi met஍

La2 Mi7+/Sol# Fa#m11

Mi Mi4Mi

Quando inizia a capire che sei solo in mutande quando inizi a capire

che tutto e' pi?nde.

La2 La7+/9 Fa#m11 Si Mi Mi4 Mi

C'era chi era incapace a sognare e chi sognava gi஍

 

Fa#m11 Si Mi

La2

Tra una botta che prendo e una botta che do tra un amico

che perdo e un amico che avro'

-------------0---------0---------------------------------------0---------0----------------------
--10p9----------10p9------------9------------------------10p9------10p9----------9--------------
---------------------------8h9----------9------------------------------------8h9----9-----------
-------------------------------------------9h11------9------------------------------------9h11--
------------------------------------------------------------------------------------------------
------------------------------------------------------------------------------------------------

Fa#m2 Si Mi

La2

che se cado una volta una volta cadro' e da terra, da li'

m'alzero'.

--------------0-------0-----------------------------------------------------
-------10p9-----10p9-----------9---------------------9-----------9----------
--------------------------8h9------9------------8h9-----9-8h9---------------
-9------------------------------------9h11-9------------------------9---11~~~~~
----------------------------------------------------------------------------
----------------------------------------------------------------------------

 

Fa#m11 La2 Si Mi Mi4 Mi

C'e' che ormai che ho imparato a sognare non smettero'.

Mi Fa#m11 La2

Mi

---------------------------|------------------|----------------------|-----||
---------------------------|------------------|----------------------|-----||
-----14--13--9-(9)-11--13--|--14------13---9--|--14--13--9-(9)-4--6--|--9--||
---------------------------|------------------|----------------------|-----||
---------------------------|------------------|----------------------|-----||
---------------------------|------------------|----------------------|-----||

Mi Fa#m11 La2

Mi

Ho imparato a sognare quando inizi a scoprire che ogni sogni ti porta

piu' in la'

Fa#m11 La2 Mi

cavalcando aquiloni oltre muri e confini ho imparato a sognare di la'.

La2 Mi7+/Sol# Fa#m11

Mi Mi4Mi

Quando tutte le scuse per giocare son buone quando tutta la vita e'

una bella canzone.

La2 La7+/9 Fa#m11 Si

C'era chi era incapace a sognare e chi sognava gia'.

 

-------------0--0-(0)-------|------------------------------------|
-----------0----0-(0)-------|------------------------------------|
-------1h2------1-(1)-------|---9--(9)--9---------(9)------------|
-----2--------------------9-|-9h11-(11)-9-9----9---9-------------|
---2-----------------/11----|---0--(0)----11-9h11----11\9-7-9/11-|
-0--------------------------|------------------0-----------------|

-------------------------------|-------------------------------|
-------------------------------|-------------------------------|
---9---9--9------------------9-|----9--9--9--------------------|
-9h11--11-9--9----9--------9---|--9h11-11-9-9--------X----2-4--|
---0---0--0--11-9h11--9h11-----|----0--0--0-11-9^9-7--/4-------|
-------------0----0-----0------|-------------------------------|

-------------------------------------------|-9--9--9----------------------|
-4/12-12-12-12\10-10-10-10\9-9-9-9h10-9-10-|-10-10---10------12-12-12-12\-|
-4/13-13-13-13\11-11-11-11\9-9-9-9---(9)---|-9--9-------9/13-13----13-13\-|
-------------------------------------------|------------------------------|
-------------------------------------------|------------------------------|
-------------------------------------------|------------------------------|

Tra una

-------------------------------|------------------------------|-----------------------|
-------------------------------|------------------------------|-----------------------|
---9-----9--9----------------9-|-----------9------------------|-4-4-----4------4-----4|
-9h11--9h11-9-9----9-------9---|-9h11(11)9-9------------------|-4-----4------4-----4--|
---0-----0--0-11-9h11---/11----|---0-(0)-0-11-9^9-7-7-----7-9\|-2---0-----------------|
--------------0----0--0/-------|----------------------7/9-----|-----------4------2----|

 

Fa#m11 Si Mi

La2

botta che prendo e una botta che do tra un amico

che perdo e un amico che avro'

-------------------0---------0---------------------------------------0---------0----------------------
--------10p9----------10p9------------9------------------------10p9------10p9----------9--------------
---------------------------------8h9----------9------------------------------------8h9----9-----------
-------------------------------------------------9h11------9------------------------------------9h11--
------------------------------------------------------------------------------------------------------
------------------------------------------------------------------------------------------------------

Fa#m2 Si Mi

La2

che se cado una volta una volta cadro' e da terra, da li'

m'alzero'.

--------------0-------0-----------------------------------------------------
-------10p9-----10p9-----------9---------------------9-----------9----------
--------------------------8h9------9------------8h9-----9-8h9---------------
-9------------------------------------9h11-9------------------------9---11~~~~~
----------------------------------------------------------------------------
----------------------------------------------------------------------------

Fa#m11 La2 Si Mi

C'e' che ormai che ho imparato a sognare non smettero'.

Fa#m11 La2 Si La2

C'e' che ormai che ho imparato a sognare non smettero'.

----------------------------------------------------0-----(0)-|
----------------------------------------------------0-----(0)-|
----------------------------------------------------2-----(2)-|
----------------------------------------------------2-----(2)-|
----------------------------------------------------0-----(0)-|
--------------------------------------------------------------|

-0----------9-----9----|-0-||
----0------------------|-0-||
-------6/9-----9-------|-1-||
-----------------------|-2-||
-----------------------|-2-||
---------------------0-|-0-||

|----------|

|ERA MAGICO|

|----------|

GRAZIE A CHI L'HA POSTATA SU AMOSFREE

Io non ricordo pi- cosa mi fer? qualche tempo fa

Io ero Robin Hood piccolo cos? e non piangevo mai

Ed era magico magico magico

Era magico magico magico

Io non ricordo pi- cosa mi fer? qualche tempo fa

Volts, schegge d'energia da una radio che somigliava a noi

Ed era magico magico magico

Ma ora vomito vomito vomito

Ed era magico magico magico magico

Ma ora vomito vomito vomito vomito

Io non ricordo pi- cosa mi fer? qualche tempo fa

Io non odiavo io m'innamoravo io e non tradivo mai

Ed era magico magico magico

Ma ora vomito vomito vomito

Ed era magico magico magico magico

Ma ora vomito vomito vomito vomito

Quant'era magico magico magico magico

E adesso vomito vomito vomito vomito...

Ed era magico..........

Io non odiavo io m'innamoravo io io confidavo in Dio...

Ed era magico..........

 

|----------|

|A MODO MIO|

|----------|

NON MI RICORDO DOVE HO TROVATO QUESTO PEZZO

IL PROPRIETARIO SI FACCIA AVANTI

Intro:

Sol Re Sol Do Sol Re Sol Do Sol (Due Volte)

Sol Re

Prende bene stare fuori oggi ch'S primavera

Mi- Re Do Re

prende bene andare in giro con il sole che saluta la sera

Sol

oggi ch'S primavera

E ho buttato via i pensieri via la noia e il magone

li ho buttati tutti quanti stamani tutti dentro a un bidone

e fuoco col kerosene

Do Sol Mi-

E a modo mio, a modo mio sono contento un poco anch'io

Do Sol Mi-

E a modo mio, a modo mio sono contento un giorno anch'io

Do Re

E a modo mio, ringrazio Dio oggi la storia la faccio io, a modo mio

Intro (Solo una volta)

E' che oggi sono in forma oggi S un giorno speciale

di quei giorni che non vengono spesso come le eclissi di sole

che le puoi quasi contare

E le bambine, le bambine oggi sono gentili

le bambine oggi fanno un sorriso ai fischi dei militari

oggi S un giorno alla pari

 

E a modo mio, a modo mio sono contento un poco anch'io

E a modo mio, a modo mio sono contento un giorno anch'io

E a modo mio, ringrazio Dio oggi la storia la faccio io, a modo mio

Solo (Sul giro dell'Intro)

E a modo mio, a modo mio sono contento un poco anch'io

E a modo mio, a modo mio oggi sono contento anch'io

E a modo mio, ringrazio Dio oggi la storia la faccio io, a modo mio

(Sul giro della Strofa - la chitarra dirige l'armonia con un ritmo nuovo !)

a modo mio... a modo mio...

 

 

 

|-------------------------|

|IO POCAHONTAS ME LA FAREI|

|-------------------------|

GRAZIE A GILMOUR

fa#

Io c'ho un amico che c'ha ventanni meno di me

si mette solo le magliette dei gruppi che piacciono a me

si mi

quando mi vede prende e mi segue e non capisco perch荊
fa#

gli dico sempre: "Non sono l'amico pi?tto per te...

si do#

Io Pocahontas me la farei

non voglio mica litigare coi tuoi,

fa#

ma che vuoi ... "

Io c'ho un amico che c'ha ventanni meno di me

e ha anche voluto l'orecchino d'argento per crescere

E L'ALTRO GIORNO MI PRENDE E MI FA:

"A TE FUMARE CH'EFFETTO TI DA?

CHE TI DA..."

Io c'ho un amico che c'ha ventanni meno di me

gli dico sempre: "Non sono l'amico pi?tto per te...

Io c'ho un amico che c'ha ventanni meno di me

Ma non S mica regolare, qualcosa devo fare perch议.

Io Pocahontas me la farei

Jessica Rabbit me la ripasserei.........

Io Pocahontas me la farei

c'ha due tettine che ci dormirei...

...che ci dormirei...

 

|----------------|

|LASCIAMI DORMIRE|

|----------------|

Trascritta da miki79

 

Intro:

F#- C#- E D

F#- C#- D A

 

F#- C#- E D

C'S una ragazza che gioca col mio baricentro

F#- C#- D A

Lei mi accompagna nei posti che non vedrei mai

F#- D#- E D

Se lei non c'S la tristezza mi avvolge di un velo

F#- C#- D A

E se non c'S io capisco dipendo da lei

Rit.

A G#/A D

uh.. lasciami dormire ancora,

uh.. lasciami sognare ancora

 

C'S una sostanza che offende la voglia di vita

E lascio che lei mi prenda, mi porti con sS

Che senza ali n, gambe, io poi mi stanco

E visto dal pavimento il mondo non S pi- lui

Rit.

A G#/A D

uh.. lasciami dormire ancora,

uh.. lasciami sognare ancora,

uh.. lasciami soffrire ancora,

uh.. che non so dire se sto male

 

C'S una voce che affonda fra i miei pensieri

ed S qua dentro che danza e non smette mai

e adesso ha un'ala spezzata scivolo gi-

il mio telefono S sveglio ma non suona pi-

Rit.

A G#/A D

uh.. lasciami dormire ancora,

uh.. lasciami sognare ancora,

uh.. lasciami soffrire ancora,

uh.. che non so dire se sto male

uh.. lasciami dormire ancora

uh.. lasciami sognare ancora

uh.. lasciami dormire ancora

lasciami dormire ancora

lasciami dormire ancora

 

+++++++++++++++++++++++++++++++++++++++++++++++++++
                      RESET
+++++++++++++++++++++++++++++++++++++++++++++++++++

|--------|

|MAMAMAE'|

|--------|

NON SO DI CHI E' QUESTA TAB.... :-((

 

Intro

E-------------------------------------------------------------||--------------
B-------------------------------------------------------------||--------------
G---------------------------------------5--7^--7--5-----------||--------------
D---5--5--5--5p7--5----------------5p7---------------7--------||--------------
A--------------------7--3-------------------------------------||--------------
E--------------------------5--(5)-----------------------------||--------------

Riff Strofa

E---0--------0----0-------||-----------------------------------------------------
B---4p5--4p5----5---------||-----------------------------------------------------
G-------------------------||-----------------------------------------------------
D-------------------------||-----------------------------------------------------
A-------------------------||-----------------------------------------------------
E-------------------------||-----------------------------------------------------

Intro. LA DO (RE)

MamamaS prega perche il mondo va pi- veloce di me . . .

(riff intro x2)

S1.

Alzo lo stereo a palla per no pensare , alzo cos? tanto da farmi male

RE FA SOL (RIFF INTRO)

dimenticando tutto quelo che so......tutto quello che so !

LA DO (RE)

Rotolo e rimbalzo tra l'inferno e il cielo tra demoni privati e santi

extravangelo

RE FA SOL (RIFF INTRO)

perdendo terreno ma il fiato S quello che S prega un poco per me

Bridge

FA RE FA RE

partecipo al gioco e non so bleffare si vince o si perde ma voglio giocare,

Rit.

(INTRO RIFF)

MamamaS prega perche il mondo va pi- veloce di me . . .

(riff intro x2)

S2.

Controsterzo e sbando e vado di fuori

cercando di seguire i piloti migliori

RE FA SOL (RIFF INTRO)

ma S un po' rimediare uno strappo e non so se mi va....no, non so se mi va,

FA RE FA RE

per ogni partita hai un gioco da fare che vinca o che perda io voglio

provare!!

Rit:

(INTRO RIFF)

MamamaS prega perche il mondo va pi- veloce di me . . .

(riff intro x2)

Solo MI-

Finale

(INTRO RIFF)

MamamaS prega perche il mondo va pi- veloce di me . . . ( varie volte con

assolo)

 

 

|--------|

|NEGATIVO|

|--------|

GRAZIE A "Pasquale Granato" Quale@myself.com

G#m

Pensavo di poter uscire e chiudere di scatto

C#

Lasciandomi di l. come lascia casa un gatto

G#m

Ma in fondo sai che c'S Non si fugge mai da s,

C#

stessi non si riesce a farsi fessi e adesso che lo so

G#m

Prendo i miei provvedimenti andr. coi fari spenti

C# B

per non esser processato come Cristo da Pilato

C#

Niente sconti e omaggi siamo chiusi oggi

B

Non voglio fare patti con il mondo e le sue porche leggi

E C#

Non nominate Dio Se tutto S lecito

E C#

Meglio fuorilegge meglio eretico

G#m B

Negativo Negativo

E C#

Negativo Negativo Negativo

G#m

Non mi va di essere schiavo di un padrone assenteista

C#

In attesa di nuova gestione uscir. dalla sua vista

G#m

Nuovo passaporto, il vecchio Bruni S morto

C# B

Votate il vostro boia non mi importa pi- di molto

E C#

Questo S quel che voglio e non chiedo di meglio

E C#

Non mi serve aiuto per fare un altro sbaglio

G#m B

Negativo Negativo

E C#

Negativo Negativo Negativo

G#m B

Non nominate Dio Se tutto S lecito

E C#

Meglio fuorilegge meglio eretico

G#m B

Negativo Negativo

E C#

Negativo Negativo Negativo

 

|------------------|

|PROVO A DIFENDERMI|

|------------------|

GRAZIE A Bomarn 

Suona bene con l'acustica, ma aiutatemi a sistemare gli accordi di

questa stupenda canzone (mi ricorda _il soffio_ dei luci ferme...)

soprattutto in quella scala che parte sul G#m per collegarsi al chorus

e che ripete alla fine di ogni giro nel ritornello appunto.

|------------------------------|

| G#m' = G#m Bb B C#m |

|------------------------------|

NON SO DI CHI SIA QUESTA TAB

RT Riff (A) RT Riff(G)

E||------------------------------------|------------------------------------||
B||------------------------------------|------------------------------------||
G||------------5------------5------5---|------------5------------5-----5----||
D||----------- 5------------5------5---|------------5------------5-----5----||
A||--0-0-0-0-0--0-0-0-0-0--0--0--------|------------5------------5-----5----||
E||------------------------------------|--3-3-3-3----3-3-3-3-----3----------||

 

G#m

Provo a difendermi, difendermi da me

senza nascondermi, difendermi da me

non so riusciro', ma sono tutto quel che ho

G#m

Provo a difendermi, ma il vento e' troppo forte

provo a difendermi, rinforzo le mie porte

al coperto tra le mura preparo un'altra serratura

C# G#m

Ahi ahi ahi ahi ah, difendermi!

C# G#m

Ahi ahi ahi ahi ah, difendermi!

G#m

Provo a difendermi, difendermi da solo

io non possiedo armi pero' in compenso volo

un'ultima stazione e la tua benedizione

G#m'

E F# G#m'

Io volo sopra i campanili e sopra le citta'

E F# G#m'

invento nuove forme in cielo all'improvviso contro il sole

E F# G#'

andro' piano piano piano io

E F# G#m'

scompariro' davvero

G#m



G#m

Provo a difendermi, difendermi da chi?

inutile suonare non abito piu' qui

nessun indizio niente, sto diventando trasparente

C# G#m (F#) G#m (F#) G#m'

Ahi ahi ahi ahi ah, difendermi!

E F# G#m'

Io volo sopra i campi in fiore e sopra le citta'

E F#' G#m'

invento nuove forme in cielo all'improvviso contro il sole

E F# G#m'

andro' piano piano piano io

E F# G#m'

scompariro' davvero...

E F# G#m'

E F# G#m' E F# G#m'

...piano piano piano io scompariro'

E F# G#m'

io scompariro' davvero...

 

 

|-------------|

|IN OGNI ATOMO|

|-------------|

TRASCRITTA DA miki79

1 giro di basso F G# C C

Fm G# C C

Intro

------------------|---------------------------|----------------|-------|
------------------|---------------------------|----------------|-------|
-5-/-10-10---10---|-/-12-b/-13-/-10-10---10---|-/-12-b/-13-/-9-|-/-5-/-|
----------10---10-|-------------------10---10-|----------------|-------|
------------------|---------------------------|----------------|-------|
------------------|---------------------------|----------------|-------|

 

------------------|---------------------------|-----------------|-----|
------------------|---------------------------|-----------------|-----|
-5-/-10-10---10---|-/-12-b/-13-/-10-10---10---|-/-12-b/-13-/-17-|-17v-|
----------10---10-|-------------------10---10-|-----------------|-----|
------------------|---------------------------|-----------------|-----|
------------------|---------------------------|-----------------|-----|

 

Fm G#

Hai le carte passi Giocati i tui assi

C

Punta pure ci. che hai pensi troppo a cosa fai

Fm G#

Perch, a quelli come noi Serve spazio ed aria sai

C

Troppo poco quel che c'S troppo poco anche per te

G# G#

Sei uguale a me Altro che no

D# A# C#

Sei come me In ogni atomo Ogni atomo

Fm G# C C

------------------|---------------------------|----------------|-------|
------------------|---------------------------|----------------|-------|
-5-/-10-10---10---|-/-12-b/-13-/-10-10---10---|-/-12-b/-13-/-9-|-/-5-/-|
----------10---10-|-------------------10---10-|----------------|-------|
------------------|---------------------------|----------------|-------|
------------------|---------------------------|----------------|-------|

Fm G#

Maledetti i fragili, che si fanno scrupoli

C

che si siupano da sS, siamo vuoti a perdere

Fm G#

ma stavolta S colpa tua, prendi al volo e metti via

C

che di donne come te, lascia stare non ce n'S

C# G#

Sei0 uguale a me Altro che no

D# A#

Sei come me In ogni atomo

C# G#

Sei uguale a me Altro che no

D# A#

Sei come me In ogni atomo

F# Fm D#

Ogni atomo Ogni atomo

F# Fm D#

Ogni atomo Ogni atomo

Fm G# C C

solo #1

-------------|-------------|-------------|------------------|
-------------|-------------|-------------|------------------|
-9-/-16-/-14-|-9-/-16-/-14-|-9-/-16-/-14-|-9-/-16-/-18-/-16-|
-------------|-------------|-------------|------------------|
-------------|-------------|-------------|------------------|
-------------|-------------|-------------|------------------|

 

-------------|-------------|-------------|------------------|----|
-------------|-------------|-------------|------------------|----|
-9-/-16-/-14-|-9-/-16-/-14-|-9-/-16-/-14-|-9-/-16-/-18-/-16-|-14-|
-------------|-------------|-------------|------------------|----|
-------------|-------------|-------------|------------------|----|
-------------|-------------|-------------|------------------|----|

2 giri strumentali Fm G# C C

Al secondo giro la 1?tarra sa uno slide per tutte le corde con un

effetto

strano... vi consiglio di ascoltare questo pezzo.

------------------|---------------------------|----------------|-------|
------------------|---------------------------|----------------|-------|
-5-/-10-10---10---|-/-12-b/-13-/-10-10---10---|-/-12-b/-13-/-9-|-/-5-/-|
----------10---10-|-------------------10---10-|----------------|-------|
------------------|---------------------------|----------------|-------|
------------------|---------------------------|----------------|-------|

 

------------------|---------------------------|-----------------|-----|
------------------|---------------------------|-----------------|-----|
-5-/-10-10---10---|-/-12-b/-13-/-10-10---10---|-/-12-b/-13-/-17-|-17v-|
----------10---10-|-------------------10---10-|-----------------|-----|
------------------|---------------------------|-----------------|-----|
------------------|---------------------------|-----------------|-----|

 

Fm G#

Hai le carte passi, giocati i tuoi assi

C

In due rischio minimo, siamo in condomminio

Fm G#

Che chi mangia polvere lascia i denti mordere

C

e se ti abbandonerai, io ti curer.

Fm G#

medicine come noi, non ne inventeranno mai

C

siamo soci.. I'll give you all my love

C# G#

Sei uguale a me Altro che no

D# A#

Sei come me In ogni atomo

C# G#

Sei uguale a me Altro che no

D# A#

Sei come me In ogni atomo

F# Fm D#

Ogni atomo Ogni atomo

F# Fm D#

Ogni atomo Ogni atomo

Solo #2

Eseguito con lo slide

-------------|-------------|-------------|------------------|
-------------|-------------|-------------|------------------|
-9-/-16-/-14-|-9-/-16-/-14-|-9-/-16-/-14-|-9-/-16-/-18-/-16-|
-------------|-------------|-------------|------------------|
-------------|-------------|-------------|------------------|
-------------|-------------|-------------|------------------|

 

-------------|-------------|-------------|------------------|----|
-------------|-------------|-------------|------------------|----|
-9-/-16-/-14-|-9-/-16-/-14-|-9-/-16-/-14-|-9-/-16-/-18-/-16-|-14-|
-------------|-------------|-------------|------------------|----|
-------------|-------------|-------------|------------------|----|
-------------|-------------|-------------|------------------|----|

Non sono sicuro di questo pezzo comunque lo faccio senza slide.

--------------------------|--------------------------|--------------------------|
--------------------------|--------------------------|--------------------------|
--15v-15v-15v-17p16p15----|--15v-15v-15v-17p16p15----|--15v-15v-15v-17p16p15----|
-----------------------17-|-----------------------17-|-----------------------17-|
--------------------------|--------------------------|--------------------------|
--------------------------|--------------------------|--------------------------|


--------------------------|--------------------------|--------------------------|
--------------------------|--------------------------|--------------------------|
--15v-15v-15v-17p16p15----|--15v-15v-15v-17p16p15----|--15v-15v-15v-17p16p15----|
-----------------------17-|-----------------------17-|-----------------------17-|
--------------------------|--------------------------|--------------------------|
--------------------------|--------------------------|--------------------------|

Eseguito con lo slide

---------|---------|---------|---------|----|----|----|
---------|---------|---------|---------|----|----|----|
-15-/-21-|-15-/-21-|-15-/-21-|-21-/-15-|-14-|-13-|-12-|
---------|---------|---------|---------|----|----|----|
---------|---------|---------|---------|----|----|----|
---------|---------|---------|---------|----|----|----|

 

 

 

|---------|

|HOLLIWOOD|

|---------|

GRAZIE A "Pasquale Granato" Quale@myself.com

 

F# C# E B x2

 

F# C#

Esco di scena e vado a camminare solo sui marciapiedi io volo

E B

sono straniero nella mia citt. la gente passa mi vede e lo sa

F# C#

Mi fermo, poi riparto, poi mi fermo ancora.. osservo la strada che si colora

E B

c'S una faccia in vetrina mi guarda e va via S lo straniero a casa mia

a casa mia

F# C# E B

F# C#

E trovo andy il matto che S vent'anni che S l? e mi dice "qui va bene cos?

E B

tanto tutto S troppo basta quel che hai e forse un giorno lo capirai"

F# C#

ma te che ne sai? Ma chi cazzo sei? per. so che ha ragione lui

E B C#

perchS lui S un matto autentico e io troppo spesso mi dimentico che qui....

 

Qui non S hollywood

F# E B F#

Qui non S hollywood

F# C# E B

F# C#

Arriva il buio e la gente va via e come per magia

E B

nelle telestazioni l'universo va in festa ancora un altro giorno alla

finestra

F# D#m E B

ma uno straniero in fondo che ne sa di come funziona di come va

C#

e anche se i sogni in questo posto finiscono in vino

B C#

anche se perdi sempre a tavolino qui....

Qui non S hollywood

F# E B F#

Qui non 蠨ollywood

 

 

|----|

|LIFE|

|----|

GRAZIE ANCORA UNA VOLTA A "Pasquale Granato" Quale@myself.com

G#m E C#

Non mi importa se non cresco In fondo mi va bene cos썊
G#m E C#

Non mi importa se non riesco davvero... devi credermi

G#m E C#

Sono stato assente in quei giorni m'educavo da me

G#m E C#

Sono ancora niente, ma oltre il niente dimmi che c'荊
G#m E C#

Dalla gente in strada ho imparato tutto quello che so

G#m E C#

E mi incazzavo se qualcuno diceva non si pu

G#m

Questa 蠣asa mia... ma ormai non so

se ho fatto bene oppure no

E G#m

A che cosa si riduce tutto questo

E G#m

Non riesco a farmene un'idea

C# E

A che cosa si riduce tutto questo

D# G#m

Se non ad illudersi

G#m E C#

Ho anche pensato di cominciare a farmi male

G#m E C#

Chiudermi in un cesso e spararmela per non pensare

G#m E C#

E invece no! Questa 蠬'essenza stessa della vita

G#m E C#

Non c'蠤i mezzo niente, 蠵na discesa da frenare a fatica

G#m

Ma se ho fatto bene... io non lo so

E G#m

A che cosa si riduce tutto questo

E G#m

A che cosa si riduce non lo sai

C# E

Se davvero puoi scegliere quando sognare

C# E D# G#m

O se qualcuno decide anche questo per te.

 

 

 

--

Miki79

voltron17@hotmail.com
Comments