Nebula - Vulcan Bomber Chords & Tabs

 

Vulcan Bomber Chords & Tabs

Nebula Chords & Tabs

Version: 1 Type: Tab 0 ratings
1 star 2 stars 3 stars 4 stars 5 stars
comments

Vulcan Bomber Tab

Band - Nebula
Song - Vulcan Bomber

Tuning: DGCFAD

Intro:
|------------------------------------|
|------------------------------------|
|------7---------9-----10---------9--|
|----7---7-----9-----10--10-----9----| Repeat
|--5--------7------8---------7-------|
|------------------------------------|

Verse:
|--------------------------|
|--------------------------|
|-------------5---7--------|
|--7---7-7-7--5---7--------|
|--7---7-7-7--3---5--------|
|--5---5-5-5---------------|

|------------------------------------|
|------------------------------------|
|------7---------9-----10---------9--|
|----7---7-----9-----10--10-----9----| Repeat
|--5--------7------8---------7-------|
|------------------------------------|
[ Tab from: http://www.guitartabs.cc/tabs/n/nebula/vulcan_bomber_tab.html ]
|--------------------------|
|--------------------------|
|-------------5---7--------|
|--7---7-7-7--5---7--------|
|--7---7-7-7--3---5--------|
|--5---5-5-5---------------|

Verse:
|--------------------------|
|--------------------------|
|-------------7---9--------|
|--9---9-9-9--7---9--------|
|--9---9-9-9--5---7--------|
|--7---7-7-7---------------|

Interlude:
|------------------------------------|
|------------------------------------|
|------7---------9-----10---------9--|
|----7---7-----9-----10--10-----9----| Repeat
|--5--------7------8---------7-------|
|------------------------------------|

Outro                        
|----------------------------|---------------|---------------|
|----------------------------|---------------|---------------|
|----------------------------|---------------|---------------|
|--9-10-9-10--9-----9----9---|--9--7---------|---7----5------|
|--7-8--7-8---7-----7----7---|--7--5---9--7--|---7----5------|
|---------------0-0---0-0--0-|---------7--5--|---5----3------|
Comments