Nebula - Rocket Chords & Tabs

 

Rocket Chords & Tabs

Nebula Chords & Tabs

Version: 1 Type: Tab 0 ratings
1 star 2 stars 3 stars 4 stars 5 stars
comments

Rocket Tab

   
"Rocket" tab, by Nebula (one of the the best bands)
Album: DOS EPs

Tuning D
Tabbed by Patty McFish

Key:
/ = slide
X = mute

Riff 1
|-----------------|
|-----------------|
|-----------------|
|-----------------|    Repeat as needed
|0-0-3-0-5-0-3-0--|
|-----------------|

Riff 2
|------------------------------------------|
|------------------------------------------|
|-9-9------9-9-------9-9-X-12-12-X-9-9-----|
|-9-9------9-9-------9-9-X-12-12-X-9-9-----| Repeat
|-7-7------7-7-------7-7-X-10-10-X-7-7-----|   as
|----00000-----00000------------------00000| needed
[ Tab from: http://www.guitartabs.cc/tabs/n/nebula/rocket_tab.html ]
Riff 3 (when he first plays this riff, he slides 0 on the fifth string up to no-where,
also, he mutes at random times)
|--------------------------------|
|--------------------------------|
|---5-5-5-------8-8-7-7-6-6-5----|  
|---5-5-5-7-X-X-8-8-7-7-6-6-5-7--|  Repeat as
|---3-3-3-7-X-X-6-6-5-5-4-4-3-7--|   needed
|---------5-X-X---------------5--|

Riff 4 (bridge)
|---------------------------------|
|---------------------------------|
|---------------------------------|                           
|-7-5---------7-------------------|
|-----7-6-5---7-0-0-3-0-0-0-3-0---|
|-----------7-5-------------------|
|
|-----------------------------|
|-----------5--5-6-6-7-7-9----|
|-7-5-------5--5-6-6-7-7-9----|
|-----7-6-5-3--3-4-4-5-5-7----|
|-----------------------------|

Riff 5 (end of bridge)
|------------------------------------------------|
|------------------------------------------------|
|------------------------------------------------|
|-9-7---------9-7---------9-7--------------------|
|-----9-8-7-5-----9-8-7-5-----9-8-7-5-7-5--------|
|-----------------------------------------7-6-5-3|

Just listen to the song so that you can put these riffs in order.



If you have any corrections, feel free to email me at patmcd@hotmail.com
Comments