Nebula - Instant Gravitation Chords & Tabs

 

Instant Gravitation Chords & Tabs

Nebula Chords & Tabs

Version: 1 Type: Tab 0 ratings
1 star 2 stars 3 stars 4 stars 5 stars
comments

Instant Gravitation Tab

NEBULA - INSTANT GRAVITATION
============================

From the album 'Charged'. Great song, great album, great band.
I was appalled to see nothing to do this Nebula on this site
so I thought I'd fix things.

On this CD there are two guitars, but is basically what Eddie
Glass plays live, except for the soloing and improvisation.

intro/outro
e|-----------------|-----------------|
B|-----------------|-----------------|
G|-9--9--9--9--9-9-|-7--7--7--7--7-7-|
D|-9--9--9--9--9-9-|-9--9--9--9--9-9-|
A|-7--7--7--7--7-7-|-7--7--7--7--7-7-|
E|-----------------|-----------------|

main part
e|--------------------------|
B|--------------------------| play four times
G|--------------------------| 
D|---------5----------5-----|
A|-----5-7----7-5--7-----7--|
E|-5-7----------------------|
[ Tab from: http://www.guitartabs.cc/tabs/n/nebula/instant_gravitation_tab.html ]
e|--------------------------|------------------------------|
B|--------------------------|------------------------------|
G|--------------------------|------------------------------|
D|---------7----------7-----|---------7--9*11--9--7---7----|
A|-----7-9----9-7--9-----9--|-----7-9---------------9----9-|
E|-7-9----------------------|-7-9--------------------------|

G|----------------8-10*12-10-8----|
D|-----------7-9----------------9-|
A|------7-9-----------------------|
E|-7-9----------------------------|

verse part

  "In this..."      "Gravity.....me to the..."
e|-----------------|--------------------------|
B|-----------------|--------------------------|
G|-7--7--7--7--7-7-|-8--8--8-8-8-5--5-5--5--5-|
D|-7--7--7--7--7-7-|-8--8--8-8-8-5--5-5--5--5-|
A|-5--5--5--5--5-5-|-8--8--8-8-8-5--5-5--5--5-|
E|-----------------|-8--8--8-8-8-5--5-5--5--5-|

That's all it is.
Comments