Nazareth - Miss Misery Chords & Tabs

 

Miss Misery Chords & Tabs

Nazareth Chords & Tabs

Version: 1 Type: Tab 1 rating
1 star 2 stars 3 stars 4 stars 5 stars
comments

Miss Misery Tab

Note 1: Solos are probably not so good. I'm new to tabs.

Note 2: 15(b17)rp12  means play 15 bent to 17, then release bend and pull off to 12

Riff 1:                                     Riff 2:
E-------------------------------            E------------------------------
B-------------------------------            B------------------------------
G-7/9--9---7/9--9--------7/9--9-  (x2)      G---------7/9--9----------9--7-   (x4)
D-7/9--9---7/9--9--7--5--7/9--9-            D-7/9--9--7/9--9--7/9--9--9--7-
A-5/7--7---5/7--7--7--5--5/7--7-            A-7/9--9--5/7--7--7/9--9--7--5-
E------------------5--3---------            E-5/7--7----------5/7--7-------


Riff 3:                                     Riff 4:
E-------------------------------            E----------------
B-------------------------------            B----------------
G---------9/11--11--9--7--------            G----------------  (x3)
D-7/9--9--9/11--11--9--7--9-----            D-5--7--7/9--9--9
A-7/9--9--7/9---9---7--5--9-----            A-5--7--7/9--9--9
E-5/7--7------------------7-----            E-3--5--5/7--7--7


Riff 5:                                     Riff 6:
E-------------------------------            E-----------------------------
B-------------------------------            B-----------------------------
G-------------------------------            G-----------------9---7-------  (x2)
D-5--7--2-----------------------            D-7/9--9--7/9--9--9---7--7/9--9
A-5--7--2-----------------------            A-7/9--9--7/9--9--7---5--7/9--9
E-3--5--0-----------------------            E-5/7--7--5/7--7---------5/7--7


Riff 2 (x4): Riff 3: Riff 4 (x3): Riff 5:

[ Tab from: http://www.guitartabs.cc/tabs/n/nazareth/miss_misery_tab.html ]
Solo:
E---------------------------------------------
B------12-12-12-12-12-12-10--------12-12-15-12
G--/14----------------------12-/14------------ (Guitar 2, Riff 1:)
D---------------------------------------------
A---------------------------------------------
E---------------------------------------------

E----------------------------------------------------------------------------
B----------------------------------------------------------------------------
G-----12-12----12-12----14-12------------------------------------------------ (Guiter 2, Riff 1)
D-/14------/14------/14-------14-12----12-12h14p12----12-12-12-14/12/14------
A-----------------------------------14-------------14------------------------
E----------------------------------------------------------------------------

E-----------12-15-12-----------------------------
B------15------------15--------------------------
G-16-16--16------------16-16-14-16-14-16/18p16/14 (Guitar 2, Riff 1, Up 2 Frets)
D------------------------------------------------
A------------------------------------------------
E------------------------------------------------

E------------------12--------15-12-15-15(b17)rp12-15
B--15-15---15-15------15--15------------------------
G------16------16------16---------------------------  (Guitar 2, Riff 2, Up 2 Frets))
D---------------------------------------------------
A---------------------------------------------------
E---------------------------------------------------



Riff 2 (x4): Riff 3: Riff 4 (x3); Riff 5:

Riff 3: Riff 4 (x3); Riff 5:
Riff 3: Riff 4 (x3); Riff 5:
Riff 3: Riff 4 (x3); Riff 5:

Then Harmonics:










Comments