Nazareth - Love Hurts Chords & Tabs

 

Love Hurts Chords & Tabs

Nazareth Chords & Tabs

Version: 1 Type: Tab 0 ratings
1 star 2 stars 3 stars 4 stars 5 stars
comments

Love Hurts Tab

   
#----------------------------------PLEASE NOTE---------------------------------#
#This file is the author's own work and represents their interpretation of the #
#song. You may only use this file for private study, scholarship, or research. #
#------------------------------------------------------------------------------#

Subject: TAB : Nazareth
Message-ID: 
Sender: news@hsr.no
Organization: Rogaland University Centre
Date: Fri, 12 Jun 1992 13:48:31 GMT
Lines: 84


 I do play the Nazareth song "Love Hurts"  like this :


   C       Am        F         G 

------0--- ----0--- -----1--- ----3
-----1-1-- ---1-1-- ----1-1-- ---0-0
----0---0- --2---2- ---2---2- --0---0          x2
---2-----2 -2-----2 --3-----3 -0-----0
--3------- 0------- -3------- --------
---------- -------- --------- 3-------



  E        Am         F        G
[ Tab from: http://www.guitartabs.cc/tabs/n/nazareth/love_hurts_tab.html ]
------0--- ----0---- ----1---- ----3
-----0-0-- ---1-1--- ---1-1--- ---0-0
----1---1- --2---2-- --2---2-- --0---0
---2-----2 -2-----2- -3-----3- -0-----0
--2------- 0-------- 3-------3 --------
---------- --------- --------- 3-------


            C         G           Am

           -0------- -3------     -0-------
           -1------- -0------     -1-------
           -0------- -0------     -2-------
           -2------- -0------     -2-------
           -3------- -2------     -0-------
           --------- --------     ---------
            C          G          Am              
Love hurts oooooOOOOOOoooooooLove hurts



-0-------------------0---0-----0-
-1-------------------0---1-----0-
-2-------------------1---2-----1-   like this the tree next lines.
-2-------------------0---2-----0-   Then you play the to next lines with much
-0-------------------3---0-----3-   sound, and the last as usual.
---------------------------------   Then you whistle and play the three last line
                                    with feelings if you know what I mean

When they play the solo in the song, tray to whistle the melody.  It is'nt
difficult.  Just some exercises


>From John living in Norway, the country of the midnightsun.Unread news in alt.guitar                                 75 articles +  104 old
Comments