Nazareth - Hair Of The Dog Chords & Tabs

 

Hair Of The Dog Chords & Tabs

Nazareth Chords & Tabs

Version: 6 Type: Tab 0 ratings
1 star 2 stars 3 stars 4 stars 5 stars
comments

Hair Of The Dog Tab

   
I did my Best to these tabs to be as complete as possible. 
Im 99% sure they are complete and correct. I just didn't include all lyrics.
But if your are looking for Changin Times, just search through this site
for my tabs for that song.

Rock on...

Band:  Nazareth
Album: Hair of the Dog
Song:  Beggars Day

March 1, 2004
Transcribed By: Guitarzan Freak

.  - palm mute           /  - slide up to
\  - slide down to       ~  - vibrato
h  - hammer on           b  - Bend
p  - pull off            Suffixes for bend:
t  - tap                 f  - full bend    h - half bend
ph - pinched harmonic    q  - quarter bend t - tap bend
*  - see comment         ^  - Hold bend    r release bend
x  - Staccato            ~  - vibrato bend
,  - slight palm mute    () - ghost note, sustained note
"  - tremolo note        <> - Trill

Tuning: Standard E A D G B E

  Main Riff/Intro:  
e|-------------|-------------|-------------|------------------|
B|-------------|-------------|-------------|------------------|
G|-------------|-------------|-------------|------------------|
D|-7--7/10-5-3-|-7--7/10-5-3-|-7--7/10-5-3-|-2222222222222222-|
A|-7--7/10-5-3-|-7--7/10-5-3-|-7--7/10-5-3-|-2222222222222222-|
E|-5-5/10-3-1-|-5--5/8--3-1-|-5--5/8--3-1-|-0000000000000000-|

  Riff 2: 
e|---------|----------------------------|
B|---------|----------------------------|
G|---------|----------------------------|
D|-7---5-3-|-5-7-10-7--7-10-10-12b14-12-|
A|-7---5-3-|----------------------------|
E|-5---3-1-|----------------------------|

  Riff 3:
e|------------------------------------------------------|
B|------------------------------------------------------|
G|------------------------------------------------------|
D|------------------------------------------------------|
A|-10p9p7-10p9p7-10p9p7-10p9p7-8p7p5-8p7p5p-8p7p5-8p7p5-|
E|------------------------------------------------------|

e|--------------------------------------------------|
B|--------------------------------------------------|
G|--------------------------------------------------|
D|--------------------------------------------------|
A|-6p5p3-6p5p3-6p5p3-6p5p3-8p7p5-8p7p5p-8p7p5-8p7p5-|
E|--------------------------------------------------|

e|--------------------------------------------------|
B|--------------------------------------------------|
G|--------------------------------------------------|
D|--------------------------------------------------|
A|-6p5p3-6p5p3-6p5p3-6p5p3-8p7p5-8p7p5p-8p7p5-8p7p5-|
E|--------------------------------------------------|
e|-----------------------------------------------|
B|-----------------------------------------------|
G|-----------------------------------------------| (End of 
D|-----------------------------------------------| Riff 3.)
A|-6p5p3-6p5p3-8p7p5-8p7p5-10p9p7-10p9p7-12p10p9-|
E|-----------------------------------------------|

  Fill 1
e|--------------------------------------------------|  
B|-<1h3p1h3p1h3p1h3p1h3p1h3p1h3p1h3p1h3p1h3p1-3b4r3-|
G|--------------------------------------------------|
D|--------------------------------------------------|
A|--------------------------------------------------|
E|--------------------------------------------------|

  Fill 2                         Fill 3
e|----------------------------| e|------------------|
B|----------------------------| B|------------------|
G|-5-7-10-7--7-10-10-12b14-12-| G|------------------|
D|----------------------------| D|-2222222222222222-|
A|----------------------------| A|-2222222222222222-|
E|----------------------------| E|-0000000000000000-|


  Solo:
e|-----------------|--------------------------------|
B|-<1h3p1h3p1h3p1>-|-4p3p1-4p3p1-4p3p1-4p3p1--1-1-1-|
G|--Repeat about---|--------------------------0-----|
D|----15 times-----|--------------------------------|
A|-----------------|--------------------------------|
E|-----------------|--------------------------------|
   
e|-----------------|-7-7-7-7p5-------------------------|
B|-<1h3p1h3p1h3p1>-|-----------5h7-5h7-3-5-7-5-3---3---|
G|--Repeat about---|-----------------------------4---4-|
D|----5 times------|-----------------------------------|
A|-----------------|-----------------------------------|
E|-----------------|-----------------------------------|


e|---------------------------------------------|
B|---6-8-8b10-8b10-8b10-8b10-8b10-8b10r8-8-6---|
G|-7-----------------------------------------7-|
D|---------------------------------------------|
A|---------------------------------------------|
E|---------------------------------------------|

e|-7b8-7-5-7-5-----------------------------9b10-9p8p6-7-8-5-|
B|-------------3-54p2p0------------------------------------|
G|-----------------------5p3p0------------------------------|
D|-----------------------------5p3p0-3-5--------------------|
A|----------------------------------------------------------|
E|----------------------------------------------------------|

e|-9b10-7-8-5-9p8p6-5/-|------------------|
B|---------------------|------------------|
G|---------------------|-9-11b13-9-11b13--|
D|---------------------|-Repeat this part-|
A|---------------------|----six-times.----|
E|---------------------|------------------|

  Song Progression:
 Main Riff       x4
 Riff 2          x3
 Riff 3          x1
 Main Riff       x4
 Fill 1          x1 
 Riff 2          x3
 Riff 3          x1
 Main Riff       x4
 Solo            x1
 Main Riff       x4
 Riff 2          x3
 Main Riff       x8
 
 Beggar's Day


If this is heaven, then I'm in hell
If trust is misfortune, then wish me well

While I think of sadness baby
Your light shines through, your light shines through
Your light shines through

chorus:

Because it's beggar's day
Because it's beggar's day
Because it's beggar's day

I've lost control of my darker side
A world all for free, on a nastier ride

*And I have crossed myself in anger
All your mercy can't save me, all your mercy can't save me
All your mercy can't save me

Because it's beggar's day
Because it's beggar's day
Because it's beggar's day
                             
solo:

It's beggar's day
You know it's beggar's day
Because it's beggar's day

See this love, I've stored for you
Wheel it and deal it, but our feelin's are true

repeat *

chorus (2x)
END

Band:  Nazareth
Album: Hair of the Dog
Song:  Rose in the Heather (Instrumental)

March 1, 2004
Transcribed By: Guitarzan Freak

.  - palm mute           /  - slide up to
\  - slide down to       ~  - vibrato
h  - hammer on           b  - Bend
p  - pull off            Suffixes for bend
t  - tap                 f  - full bend    h - half bend
ph - pinched harmonic    q  - quarter bend t - tap bend
*  - see comment         ^  - Hold bend    r release bend
x  - Staccato           ~  - vibrato bend
,  - slight palm mute    () - ghost note, sustained note
"  - tremolo note        <> - Trill

Tuning: Standard E A D G B E
 
  Main Riff/Chorus: 
e|------1--------1----------1-0-----------|
B|--------1--------1----------------------|
G|o---2--------2-----2----2--------------o|
D|o-3--------2----------0--------0-2-3-5-o|
A|----------------------------------------|
E|----------------------------------------|

END

Band:  Nazareth
Album: Hair of the Dog
Song:  Love Hurts

March 1, 2004
Transcribed By: Guitarzan Freak

.  - palm mute           /  - slide up to
\  - slide down to       ~  - vibrato
h  - hammer on           b  - Bend
p  - pull off            Suffixes for bend
t  - tap                 f  - full bend    h - half bend
ph - pinched harmonic    q  - quarter bend t - tap bend
*  - see comment         ^  - Hold bend    r release bend
x  - Staccato           ~  - vibrato bend
,  - slight palm mute    () - ghost note, sustained note
"  - tremolo note        <> - Trill

Tuning: Standard E A D G B E
 





 Intro:
e|----------3--------------3------1-0--|
B|------------3--------------3----1-1--|
G|o-------0-----0--------0-----0--2-0-o|
D|o-----0--------------0----------3-2-o|
A|----2--------------2------------0-3--|
E|--3--------------3-------------------|
 
  Verse
e|---------3--------------0--------------3------------2-------0---|
B|-----------3--------------0----------1---1--------3---3-------1-|
G|-------0-----0--------0-----0------0-------0----2---------------|
D|-----0--------------2------------2------------0-----------2-----|
A|---2--------------2------------3------------------------3-------|
E|-3--------------0-----------------------------------------------|
[ Tab from: http://www.guitartabs.cc/tabs/n/nazareth/hair_of_the_dog_tab_ver_6.html ]
e|------------------------------------------3------------2-------0---|
B|-----0-------0-------0-------0----------1---1--------3---3-------1-|
G|-------0-------2-------0-------0------0-------0----2---------------|
D|---2-------2---------------2--------2------------0-----------2-----|
A|-2-------0---------2-----2--------3------------------------3-------|
E|-----------------3-------------------------------------------------|

E|-1-0-|
B|-1-1-|
G|-2-0-| End of Verse
D|-3-2-|
A|-0-3-|
E|-----|

  Bridge:
e|------------------------------------------------------------------|
B|---------3--------0-------0--------0-------0--------0-------0-----|
G|-------0---0--------0-------0--------0-------0--------0-------0---|
D|-----0-------0--------2-------0--------2-------0--------2-------0-|
A|---2------------2----------------2----------------2---------------|
E|-3----------------------3----------------3----------------3-------|

e|---------0---------------0---------------2-------2-0------------------|
B|-------2---2-----------2---2---------3-----3-----3-1------0-------0---|
G|-----2-------2-------2-------2-----2---2-----2---2-0--------0-------2-|
D|---2-----------2---2-----------2-0-------------0-0-2----2-------2-----|
A|-0---------------0---------------------------------3--2-------0-------|
E|----------------------------------------------------------------------|

e|-------------------------3-----------2-------0-----------3------1-0-|
B|-----0-------0---------1---1-------3---3-------1-----------3----1-1-|
G|-------0-------0-----0-------0---2---------------------0-----0--2-0-|
D|-----------2-------2-----------0-----------2---------0----------3-2-|
A|---2-----2-------3-----------------------3---------2------------0-3-|
E|-3-----------------------------------------------3------------------|





  Solo:
e|-----------------------|
B|-8/10\8/12\8/12\10/12--|
G|o---------------------o| On Solo 
D|o---------------------o| use a
A|-----------------------| slide.
E|-----------------------|

  Song Progression:
 Intro           x1
 Verse           x2
 Bridge          x1
 Verse           x1
 Solo            x1
 Verse           x1


END
Band:  Nazareth
Album: Hair of the Dog
Song:  Hair of the Dog

Transcribed By: Guitarzan Freak
.  - palm mute           /  - slide up to
\  - slide down to       ~  - vibrato
h  - hammer on           b  - Bend
p  - pull off            Suffixes for bend
t  - tap                 f  - full bend    h - half bend
ph - pinched harmonic    q  - quarter bend t - tap bend
*  - see comment         ^  - Hold bend    r release bend
x  - Staccato            ~  - vibrato bend
,  - slight palm mute    () - ghost note, sustained note
"  - tremolo note        <> - Trill

Tuning Standard E A D G B E
 
  Intro/Main Riff:
e|----------------------|----------------------|----------------------|
B|----------------------|----------------------|----------------------|
G|----------------------|----------------------|----------------------|
D|------------2-5p2-0-2-|------------2-5p2-0-2-|------------2-5p2-0-2-|
A|--------0-2-----------|--------0-2-----------|--------0-2-----------|
E|-0--0-3---------------|-0-0-3---------------|-0-0-3---------------|

e|----------------------|----------------------|--------------------|
B|----------------------|----------------------|--------------------|
G|----------------------|----------------------|--------------------|
D|------------2-5p2-0-2-|------------2-5p2-0-2-|------------2-5p2-0-|
A|--------0-2-----------|--------0-2-----------|--------0-2---------|
E|-0--0-3---------------|-0-0-3---------------|-0-0-3-------------|

  Riff 1:
e|----------------------|------------------------|
B|----------------------|------------------------|
G|------------2-5p2-0-2-|----------2-2-2b4-2-0---|
D|----------0-2---------|----------2-2---------2-|
A|-0--0-3-4-------------|-0--0-3-4---------------|
E|----------------------|------------------------|

  Riff 2:
e|---------------------------------------|
B|---------------------------------------|
G|-9--------9---77/99--9-------9---77/99-|
D|-9-5/7---9---77/99--9-5/7---9---77/99-|
A|-7-5/7---7---55/77--75/7---7---55/77-|
E|----3/5----------------3/5-------------|

  Riff 3:
e|----------------------|----------------------|
B|----------------------|----------------------|
G|----------------------|----------------------|
D|------------2-5p2-0-2-|------------2-5p2-2-0-|
A|--------0-2-----------|--------0-2-----------|
E|-0--0-3---------------|-0-0-3---------------|

  Riff 4:
e|----------------------------------------|
B|----------------------------------------|
G|-9----------9---9----------9---7-5-4--9-| 
D|-9--55/77--9---9---55/77--9---7-5-4--9-| 
A|-7--55/77--7---7---55/77--7---5-3-2--7-|
E|-----33/55----------33/55---------------|

  Song Progression:
 Main Riff       x1
 Riff 1          x1
 Riff 3          x1        
 Riff 2          x1
 Main Riff       x1
 Riff 1          x1
 Riff 3          x1
 Riff 2          x1
 Riff 3          x1
 Riff 4          x2
 Riff 3          x1
 Riff 2          x10

END

Band:   Nazareth  
Album:  Hair of the Dog
Song:   Miss Misery 

March 1,2004
Transcribed By: Guitarzan Freak

.  - palm mute           /  - slide up to
\  - slide down to       ~  - vibrato
h  - hammer on           b  - Bend
p  - pull off            Suffixes for bend
t  - tap                 f  - full bend    h - half bend
ph - pinched harmonic    q  - quarter bend t - tap bend
*  - see comment         ^  - Hold bend    r release bend
x  - Staccato            ~  - vibrato bend
,  - slight palm mute    () - ghost note, sustained note
"  - tremolo note        <> - Trill

Tuning E A D G B E
 
  Intro:
e|----------------------------------------------------|
B|----------------------------------------------------|
G|-5/7-7-5/7-7-------5/7-7--5/7-7--5/7-7-------5/7-7-|
D|-5/7-7-5/7-7--5-3-5/7-7-5/7-7--5/7-7--5-3-5/7-7-|
A|-3/5-5-3/5-5--5-3-3/5-5-3/5-5--3/5-5--5-3-3/5-5-|
E|---------------3-1-----------------------3-1--------|

  Main Riff:
e|------------------------|-------------------------------------------------|
B|------------------------|-------------------------------------------------|
G|-------5/7-7--------7-5-|--------5/7-7---------5/7-7---------5/7-7--------|
D|-5/7-7-5/7-7-5/7-7--7-5-|-5/7-7--5/7-7--5/7-7--5/7-7--5/7-7--5/7-7-5/7-7-|
A|-5/7-7-3/5-5-5/7-7--5-3-|-5/7-7--3/5-5--5/7-7--3/5-5--5/7-7--3/5-5--5/7-7-|
E|-3/5-5-------3/5-5------|-3/5-5---------3/5-5---------3/5-5---------3/5-5-|

e|-----|---------------------|----------------------------------------------|
B|-----|---------------------|----------------------------------------------|
G|-7-5-|-------5/7-7--7-5--2-|--------------------------------------------2-|
D|-7-5-|-5/7-7-5/7-7--7-5--2-|-3-3-5-5/7-7--3-3-5-5/7--3-3-5-5/7--3-3-5-5-2-|
A|-5-3-|-5/7-7-3/5-5--5-3--0-|-3-3-5-5/7-7--3-3-5-5/7--3-3-5-5/7--3-3-5-5-0-|
E|-----|-3/5-5---------------|-1-1-3-3/5-5--1-1-3-3/5--1-1-3-3/5--1-1-3-3---|

  Solo:
e|-------------------------------------------------------------------------|
B|-----19-(19)-17p16-17--19-19-19----19\-------10------10------10/12-12----|
G|-7b8----------------------------21------9-11----9-11----9-11----------11-| 
D|-------------------------------------------------------------------------| 
A|-------------------------------------------------------------------------|
E|-------------------------------------------------------------------------|
      
e|--------------------------|
B|-----6-----6-4---6\-------|
G|-5-7---5-7-----5------7b8-| I'm still working on rest of solo.
D|--------------------------|
A|--------------------------|
E|--------------------------|


  Song Progression:
 Intro           x1
 Main Riff       x1
 Solo            x1
 Main Riff       x1
 Intro           x3
 

END

Band:  Nazareth  
Album: Hair of the Dog
Song:  Whiskey Drinkin Woman 

March 1,2004
Transcribed By: Guitarzan Freak

.  - palm mute           /  - slide up to
\  - slide down to       ~  - vibrato
h  - hammer on           b  - Bend
p  - pull off            Suffixes for bend
t  - tap                 f  - full bend    h - half bend
ph - pinched harmonic    q  - quarter bend t - tap bend
*  - see comment         ^  - Hold bend    r release bend
x  - Staccato            ~  - vibrato bend
,  - slight palm mute    () - ghost note, sustained note
"  - tremolo note        <> - Trill

Tuning E A D G B E

  Intro/Main Riff:
e|-----------------------------------------------|
B|-----------------------------------------------|
G|o---------------------------------------------o|
D|o------8b10-7--------7-----8b10-7-----7-----7-o|
A|----7-------------------7----------------------|
E|--5----------5-5h7----5----------5h7---3h5-----|

  Verse:
e|-----------------------------------------------------------------|
B|-----------------------------------------------------------------|
G|-----------------------------------------------------------------|
D|-7--7-10p9p7p5h7--7-7----7-7-10p9p7p5h7-7-7---7-----7------------|
A|----------------------2b--------------------5---5h7--------------|
E|-----------------------------------------------------------------|

END
Comments