Nazareth - Broken Down Angel Chords & Tabs

 

Broken Down Angel Chords & Tabs

Nazareth Chords & Tabs

Version: 1 Type: Chords 0 ratings
1 star 2 stars 3 stars 4 stars 5 stars
comments

Broken Down Angel Chords

   
#----------------------------------PLEASE NOTE---------------------------------#
#This file is the author's own work and represents their interpretation of the #
#song. You may only use this file for private study, scholarship, or research. #
#------------------------------------------------------------------------------#

Broken Down Angel / Nazareth

[ Tab from: http://www.guitartabs.cc/tabs/n/nazareth/broken_down_angel_crd.html ]
     E         A                E                  B
e|------------------------------------------------------|
B|-----------9-10~----12b-12-10-12----------------------|
G|-s/9--9-11-------------------------11b-11-9-11b~11----|
D|------------------------------------------------------|
A|------------------------------------------------------|
E|------------------------------------------------------|
              E    E  Eb D
e|------------------------------------------------------|
B|--9-11b-11-9-----9--8--7------------------------------|
G|-----------------9--8--7------------------------------|
D|-----------------9--8--7------------------------------|
A|-----------------7--6--5------------------------------|
E|------------------------------------------------------|

(play the chords in a mostly boogie pattern, with variations)


    (play the chords in a mostly boogie pattern, with variations)

 
(Chords in chorus. others standard)
    DbM  Ab
e|----4----4----------------------------------------------|
B|----5----4----------------------------------------------|
G|----6----5----------------------------------------------|
D|----6----6----------------------------------------------|
A|----4----6----------------------------------------------|
E|---------4----------------------------------------------|


Used Tab Symbols
_____________________
 h  = Hammer On
 p  = Pull Off
 ~  = Sustain
 v  = Vibrato
 w  = Wide Vibrato
 b  = Bend Up
 hb  = Bend Halfway
 /  = Slide Up
 \  = Slide Down
 *  = Trill
 x  = Muted Note
 h  = Harmonic
 t  = Right Hand Tap
 :  = Let Ring
_____________________

mbcljm@hotmail.com
LMorsette
Comments