Navarro Dave - Rexall Chords & Tabs

 

Rexall Chords & Tabs

Navarro Dave Chords & Tabs

Version: 1 Type: Tab 0 ratings
1 star 2 stars 3 stars 4 stars 5 stars
comments

Rexall Tab

   
Artist: Dave navarro
Title: Rexall

Intro/Verse: Clean Electric Guitar

-3--3-3-3--2--2-0-2--0
-3--3-3-3--3--3-3-3--3
-2--2-2-2--2--2-2-2--0
-0--0-0-0--0--0-0-0--0
[ Tab from: http://www.guitartabs.cc/tabs/n/navarro_dave/rexall_tab.html ]
chorus: Heavy Dist. and Chorus
d-6----9----13----4
a-6----9----13----4
e-4----7----11----2
                                ) 
Solo: Dist. Guitar and Chorus  /
D-----6-6-6-6-6-6-6-4-4-4-4-4-/ 12-12-12-12-12-12-repeat
4x

Outro: Heavy Dist. And Chorus

D8-8-8-8-8-8-8-8-6-6-6-6-b-13-13-13-13
A8-8-8-8-8-8-8-8-6-6-6-6-b-13-13-13-13repeat x8
E6-6-6-6-6-6-6-6-4-4-4-4-b-11-11-11-11

The Format is 
Intro x2
Verse x4
Chorus x2
Verse x4
Chorus x2
solo
Chorus x2 repeat
Outro x8

if you have any corrections email me at Hardflipwr@aol.com
Thanks!!!!
Comments