National Anthems - Usa (america) National Anthem - Star Spangled Banner Chords & Tabs

 

Usa (america) National Anthem - Star Spangled Banner Chords & Tabs

National Anthems Chords & Tabs

Version: 1 Type: Tab 9 ratings
1 star 2 stars 3 stars 4 stars 5 stars
comments

Usa (america) National Anthem - Star Spangled Banner Tab

Song:American National Anthem
Tabbed By: bcrichplayer008

E---------------4-2-0---------------------4-2-0-------------0-0------------------
B-0---------0----------------------0---0-0-----------4---2-4-------0------------- 
G---1----1-----------------1--3-----------------------------------------1--------
D------2---------------------------------------------------------------------2---
A--------------------------------------------------------------------------------
E-------------------------------------------------------------------------------- 

E---------------0--4-2-0---------------------4-2-0-------------0-0---------------
B-0---------0----------------------0---0-0-----------4---2-4-------0------------- 
G---1----1-----------------1--3-----------------------------------------1--------
D------2---------------------------------------------------------------------2---
A--------------------------------------------------------------------------------
E-------------------------------------------------------------------------------- 
[ Tab from: http://www.guitartabs.cc/tabs/n/national_anthems/usa_america_national_anthem_star_spangled_banner_tab.html ]
E-4--4-4-5-7-7--5-4-2-4-5-5---5-4-2-0-----------0--------------------------------
B------------------------------------------------4--2-4------------0-------------
G------------------------------------------------------------1--3----------------
D--------------------------------------------------------------------------------
A--------------------------------------------------------------------------------
E--------------------------------------------------------------------------------

E---------0-0--0-----------2--5-4------------------0-2-4-5-7---------------------
B-0--0----------4-2--2-2----------5--5--4--0-0-----------------------------------
G--------------------------------------------------------------------------------
D--------------------------------------------------------------------------------
A--------------------------------------------------------------------------------
E--------------------------------------------------------------------------------

E-0--2--4---5---2---0-------------------------------------------------------------
B---------------------------------------------------------------------------------
G---------------------------------------------------------------------------------
D---------------------------------------------------------------------------------
A---------------------------------------------------------------------------------
E---------------------------------------------------------------------------------
Comments