National Anthem - Star Spangled Banner Chords & Tabs

 

National Anthem Chords & Tabs

Version: 1 Type: Tab 3 ratings
1 star 2 stars 3 stars 4 stars 5 stars
comments

Star Spangled Banner Tab

   
The Star Spangled Banner
National Anthem
Tabbed by: Ian Gunter

|---0---------------0---5---|---9---7---5---------------------|------------9---7---5---5h7p5---|
|-------2-------2------------|---------------2---4---4h5------|---5---5------------------------|
|-----------2----------------|--------------------------------|--------------------------------|
|----------------------------|--------------------------------|--------------------------------|
|----------------------------|--------------------------------|--------------------------------|
|----------------------------|--------------------------------|--------------------------------|

|---2---2---4---5---5---0-------------|
|-----------------------------2-------|          
|---------------------------------2---|
|-------------------------------------|
|-------------------------------------|
|-------------------------------------|

|---0---------------0---5----|---9---7---5--------------------|------------9---7---5---5h7p5------|
|-------2-------2------------|---------------2---4---4h5------|---5---5---------------------------|
|-----------2----------------|--------------------------------|-----------------------------------|
|----------------------------|--------------------------------|-----------------------------------|
|----------------------------|--------------------------------|-----------------------------------|
|----------------------------|--------------------------------|-----------------------------------|

|---2---2---4---5---5---0-------------|
|-----------------------------2-------|          
|---------------------------------2---|
|-------------------------------------|
|-------------------------------------|
|-------------------------------------|
[ Tab from: http://www.guitartabs.cc/tabs/n/national_anthem/star_spangled_banner_tab.html ]
|---9---9---9---10---12---12---|---10---9---7---9---10---10------------|
|----------------------------------|-----------------------------------|
|----------------------------------|-----------------------------------|
|----------------------------------|-----------------------------------|
|----------------------------------|-----------------------------------|
|----------------------------------|-----------------------------------|


|---9---9---7---5---5h7p5--|---2---2---4---5---5---0------------------|
|-------------------------------|-----------------------------2-------|          
|-------------------------------|---------------------------------2---|
|-------------------------------|-------------------------------------|
|-------------------------------|-------------------------------------|
|-------------------------------|-------------------------------------|



|---7b----|
|---7b----|
|---------|
|---------|
|---------|
|---------|

|-------7---11----|
|---7-------------|
|-----------------|4X
|-----------------|
|-----------------|
|-----------------|

|---5---5---5p4---2---2---2/7---10---7---7p5---4---0---0------------|---5---7---9/10---12------|
|-------------------------------------------------------------------|--------------------------|
|-------------------------------------------------------------------|--------------------------|
|-------------------------------------------------------------------|--------------------------|
|-------------------------------------------------------------------|--------------------------|
|-------------------------------------------------------------------|--------------------------|

|---5---7---9---10---7---5~~~~~~~~~~~~~~~~~~~~~~~~~~~~~~------------|
|-------------------------------------------------------------------|
|-------------------------------------------------------------------|
|-------------------------------------------------------------------|
|-------------------------------------------------------------------|
|-------------------------------------------------------------------|

p= pull off
h= hammer on
~= vibrato
b= bend

    
Comments