Natalie Imbruglia - Wrong Impression Chords & Tabs

 

Wrong Impression Chords & Tabs

Natalie Imbruglia Chords & Tabs

Version: 1 Type: Tab 0 ratings
1 star 2 stars 3 stars 4 stars 5 stars
comments

Wrong Impression Tab

   
wrong impression" by Natalie Imbruglia
>From the album "White Lilies Island"
Tabbed by Camila G A

Intro:

e-----4--2-2--4-2--|
B-4---------4------|
-------------------|  1 - 2 - 3 - 4 - (timing)

| E | E | B | B | x2

Verse:

| E | E | B | B | x2
| E | C#m | B | B | E | C#m | F# |

Chorus:

| E | E | B | B | E | E | F# | F# |

Repeat intro (just once), verse and chorus.
Then stop for violin and restart playing one step higher.

Bridge:
[ Tab from: http://www.guitartabs.cc/tabs/n/natalie_imbruglia/wrong_impression_tab.html ]
e-----6--4-4--6-4--|
B-6---------6------|
-------------------|  1 - 2 - 3 - 4 - (timing)

| F# | F# | C# | C# | F# | F# | C# | C# |
| Ebm | G# | F# | G# |

Chorus:

| F# | F# | C# | C# | F# | F# | G# | G# |
(repeat until fade)

Chords needed:

  E   B   C#m F#  Ebm G#  C#
e-0---2---4---2---2---4---1----|
B-0---4---5---2---4---4---2----|
G-1---4---6---3---3---5---1----|
D-2---4---6---4---1---6---3----|
A-2---2---4---4---x---6---4----|
E-0---x---x---2---x---4---x----|

any comment : zakencg.hotmail.com
Comments