Natalie Imbruglia - Beauty On Fire Chords & Tabs

 

Beauty On Fire Chords & Tabs

Natalie Imbruglia Chords & Tabs

Version: 1 Type: Tab 0 ratings
1 star 2 stars 3 stars 4 stars 5 stars
comments

Beauty On Fire Tab

   
Beauty on the Fire by Natalie Imbruglia
From the album "White Lilies Island"
Tabbed by Keichy Sparkle

Verse:

| G | Em | Bm | Bm | x3 first time, x1 second time
| G | Em | Bm A | E/G# |

Pre-chorus:

 | G       Bb     | Bm A | E/G# | E/G# |
e|----------------|
B|-----3-2-----3--|
G|---0-------0----|

Chorus:

| D | G | Bm | G | x2

e|-10--------10------|
B|----10--------10---|
G|-------7---------7-|
  play this in every bar
[ Tab from: http://www.guitartabs.cc/tabs/n/natalie_imbruglia/beauty_on_fire_tab.html ]
| Bm | Bm | (only 1st time, leads back into verse)

Repeat verse, pre-chorus and chorus.
Bridge ("sensory pleasure..."): go on playing chorus chords and riff twice.

| Bm | x4
and play again chorus riff and chords twice ("do I assume I could fly...").
Repeat chorus and bridge until fade.

Chords needed:

  G    Em   Bm   A    E/G# Bb   D    
e-3----0----2----0----0----1----2-----
B-0----0----3----2----0----3----3-----
G-0----0----4----2----1----3----2-----
D-0----2----4----2----2----3----0-----
A-2----2----2----0----2----1----x-----
 -3----0----x----x----4----x----x-----
Comments