Natalie - Energy Chords & Tabs

 

Energy Chords & Tabs

Natalie Chords & Tabs

Version: 1 Type: Tab 0 ratings
1 star 2 stars 3 stars 4 stars 5 stars
comments

Energy Tab

Natalie - Energy
Tabbed by:RaidLink
Email:Weexor@Gmail.com

I heard this song on the hip-hop/R&B radio station once.
just thought i should tab because it sounds pretty good.

e|------------------------7-----------6-----------6------------------------|
B|----7--7/-9-\7-----7-7-9------7-7-9-------7--7-9-------------------------|
G|-------------------------------------------------------------------------|
D|-------------------------------------------------------------------------|
A|-7---7----------7----------6---6--------6--------------------------------|
E|-------------------------------------------------------------------------|
[ Tab from: http://www.guitartabs.cc/tabs/n/natalie/energy_tab.html ]
e|----------4-----------4-----------4-6-4-------4-6-4----------------------|
B|---5--5-7------5--5-7-----------4-----------4----------------------------|
G|-------------------------------------------------------------------------|
D|-------------------------------------------------------------------------|
A|-4---4--------4-------------6-----------6--------------------------------|
E|------------------------4-----------4------------------------------------|

e|-7/9h10p9--7----2/4h5--2---7/9h10p9----7-----2/4h5p--4--2---4------------|
B|-7/9-------7----2/4----2-----7/9-------7-----2/4-----4--2---4------------|
G|-7/9-------7----2/4----2-----7/9-------7-----2/4-----4--2---4------------|
D|-------------------------------------------------------------------------|
A|-------------------------------------------------------------------------|
E|-------------------------------------------------------------------------|

If you see something missing or wrong, please msg me.
Comments