Nashville Pussy - Struttin Cock Chords & Tabs

 

Struttin Cock Chords & Tabs

Nashville Pussy Chords & Tabs

Version: 1 Type: Bass Tab 0 ratings
1 star 2 stars 3 stars 4 stars 5 stars
comments

Struttin Cock Bass Tab

   
-----------------------------------------------------------------------------
			     Struttin' Cock - Nashville Pussy
-----------------------------------------------------------------------------

Tabbed By : Dorian Black
e-mail: eldritch@sympatico.ca

Tuning: Standard

intro/break                 
G|--------------------------------------------------------------------------|
D|--------------------------------------------------------------------------|
A|----------3-5-53-555------------------------------------------------------|
E|---5-5-55-----------------------------------------------------------------|
[ Tab from: http://www.guitartabs.cc/tabs/n/nashville_pussy/struttin_cock_btab.html ]
verse
G|--------------------------------------------------------------------------|
D|--------------------------------------------------------------------------|
A|--------3-----------3-3333-33-5-5555-55-----------------------------------|
E|---55-55--5-5555-55-------------------------------------------------------|

fill
G|--------------------------------------------------------------------------|
D|--------------------------------------------------------------------------|
A|-------3------------------------------------------------------------------|
E|---55----5-5555-55--------------------------------------------------------|

intro x4 (no bass)
intro x4
verse x2
break x3
fill

verse x2
break x3
fill

solo - verse x4
break x3
fill
break x2 (no bass)
break x2
solo - break x8
fillx4



| /  slide up
| \  slide down
| h  hammer-on
| p  pull-off
| ~  vibrato
| +  harmonic
| x  Mute note
=============================================================================
Comments