Nas - Message Chords & Tabs

 

Message Chords & Tabs

Nas Chords & Tabs

Version: 1 Type: Tab 0 ratings
1 star 2 stars 3 stars 4 stars 5 stars
comments

Message Tab








-The Message











-The Message

-Naz, It was written

-Transcribed by Stuart
Lester – Stutang@mindless.com


 

 Normal tuning, Capo on third
fret.

 

 

E|---3------------------------------2-------------------------------|

B|---------------------0-----------------------------3--------------|
G|-------------0-------------(0)-----------2-------------------(2)--|
D|---2------------------------------0-------------------------------|
A|-------------------------------------------------------------------|
E|-------------------------------------------------------------------|

 

E|---0-----------------------------0-----------------2--------------|
B|---------------------0---------------------------------------------|
G|------------2---------------(2)------------2----------------------|
D|-------------------------------------------------------------------|
A|---0-----------------------------2-----------------2--------------|
[ Tab from: http://www.guitartabs.cc/tabs/n/nas/message_tab.html ]
E|-------------------------------------------------------------------|


E|---3-----------------------------2--------------------------------|

B|---------------------0------------------------------3-------------|

G|------------0--------------(0)-------------2---------------(2)----|

D|---2-----------------------------0--------------------------------|

A|-------------------------------------------------------------------|

E|-------------------------------------------------------------------|

 

E|---0-----------------------------0--------------------------------|

B|----------------------0----------------------------4--------------|

G|------------2-------------(2)-------------2-----------------2----|

D|-------------------------------------------------------------------|

A|---0-----------------------------2----------------2---------------|

E|-------------------------------------------------------------------|


Repeat for the whole song – Enjoy!






Comments