Nas - I Know I Can Chords & Tabs

 

I Know I Can Chords & Tabs

Nas Chords & Tabs

Version: 1 Type: Tab 0 ratings
1 star 2 stars 3 stars 4 stars 5 stars
comments

I Know I Can Tab

Great song, enjoi

   Muffled intro thingy
E|--17p16h17--21p20h21-----------|
B|-------------------------------|
G|---------------------11--------|
D|-------------------------11~~~-|
A|-------------------------------|
E|-------------------------------|


   Main Riff

E|------------------------------------------------------------------|
B|--14p13h14p13h14----------------------------------14p13h14p13h14--|
G|----------------------11~----11--13~-----11--14~------------------|
D|--------------------------11----------11--------------------------|
A|------------------------------------------------------------------|
E|------------------------------------------------------------------|
[ Tab from: http://www.guitartabs.cc/tabs/n/nas/i_know_i_can_tab.html ]
E|-------------------------------------------------------------------|
B|-------------------------------------12--14~--15-14-12~--14-12-----|
G|--11~----11-13~--14-13-11~~------14---------------------------14~--|
D|------11-----------------------------------------------------------|
A|-------------------------------------------------------------------|
E|-------------------------------------------------------------------|

E|-------------------------------------------------------------------|
B|--12---------------------------------------------------14p13h14----|
G|-----14--13~--11~-----11---13~---14--13---11~~~~~~~~~--------------|
D|-------------------11----------------------------------------------|
A|-------------------------------------------------------------------|
E|-------------------------------------------------------------------|
Comments