Nas - Dance Chords & Tabs

 

Dance Chords & Tabs

Nas Chords & Tabs

Version: 1 Type: Bass Tab 0 ratings
1 star 2 stars 3 stars 4 stars 5 stars
comments

Dance Bass Tab

Dance
Nas

Bass Tab

This bass part is "hella raw"
correct me if im wrong

Tune the low E string 2 frets down first.

Play this the whole song
[ Tab from: http://www.guitartabs.cc/tabs/n/nas/dance_btab.html ]
----------------------------------------|
--------555-7-5-3-----------------------|
--3-5--------------1-3-5-1---333-5-3----|
5-----5-1------------------3----------5-|

----------------------------------------|
----------555-7-5-3---------------------|
--3-5---------------1-3-5-1---333-5-3---|
5-----5-5-------------------3---------5-|
Comments