Nargaroth - The Day Burzum Killed Mayhem Chords & Tabs

 

The Day Burzum Killed Mayhem Chords & Tabs

Nargaroth Chords & Tabs

Version: 1 Type: Tab 0 ratings
1 star 2 stars 3 stars 4 stars 5 stars
comments

The Day Burzum Killed Mayhem Tab

   
The first 40 seconds are a news flash about the murder on the mayhem gituarist
after this, the song really starts


Part a			
e |----------------------------------|
B |----------------------------------|
G |----------------------------------|
D |----------------------------------|
A |-5-5-5-5-5-5-5-5-4-4-4-4-4-4-4-4--|
E |-3-3-3-3-3-3-3-3-2-2-2-2-2-2-2-2--|


Part b
e |-----------------------------------|
B |-----------------------------------|
G |-----------------------------------|
D |-----------------------------------|
A |-5-5-5-5-5-5-5-5-4-4-4-4-4-4-3-4---|
E |-3-3-3-3-3-3-3-3-2-2-2-2-2-2-1-2---|

[ Tab from: http://www.guitartabs.cc/tabs/n/nargaroth/the_day_burzum_killed_mayhem_tab.html ]
Part c
e |-----------------------------------|
B |-----------------------------------|
G |-----------------------------------|
D |-----------------------------------|
A |-6-6-6-6-6-6-6-6-4-4-4-4-4-4-4-4---|
E |-4-4-4-4-4-4-4-4-2-2-2-2-2-2-2-2---|



Riff I = 8x Part a 

Riff II = 1x Part b   1x Part a   Part b   1x Part a    4x Part c

Riff III = 4x Part b   4x Part c 



0:40 till 3:46 
PLAY :   Riff A 2 times		Riff B 3 times		Riff C 2 times

AT END OFF riffs I  II or III u will hear a drum part


Riff D				Riff E

e |-----------------|		|-----------------------------|
B |-----------------|		|-----------------------------|
G |-----------------|		|-----------------------------|
D |-----------------|		|-----------------------------|
A |-5--6-5-4--3-4---|		|-11---19--12-11---17--12-11--|
E |-3--4-3-2--1-2---|		|--9---17--10-9----15--10-9---|


3:46 till 4:38
PLAY :

Riff D 4 times
Riff E 4 times
Riff D 8 times (let ring at end)
Comments