Narciso Yepez - Romance Anonimo Chords & Tabs

 

Romance Anonimo Chords & Tabs

Narciso Yepez Chords & Tabs

Version: 1 Type: Tab 0 ratings
1 star 2 stars 3 stars 4 stars 5 stars
comments

Romance Anonimo Tab

cancion: romance anonimo
interprete: narciso yepez

hay les va este tab,esta completo y 100 % perfecto

HECHO POR D.A.R.C (QUE VIVAN LOS INGENIEROS CIVILES)
ALGUNA INQUIETUD diego_a_rodriguez_c@yahoo.com


Primera parte (repetir 2 veces):

e|-7--7--7--7--5--3--3--2--0--0--3--7--12--12--12--12----|
B|--0--0--0--0--0--0--0--0--0--0--0--0---0---0---0---0---|
G|---0--0--0--0--0--0--0--0--0--0--0--0---0---0---0---0--|
D|-------------------------------------------------------|
A|-------------------------------------------------------|
E|-0--------0--------0--------0--------0-----------0-----|

e|-10--8---8--7--5--5--7--8--7--8--7--11--8--7----|
B|---0--0---5--5--5--5--5--5--7--7--7---7--7--7---|
G|----0--0---5--5--5--5--5--5--8--8--8---8--8--8--|
D|------------------------------------------------|
A|---------0--------------------------------------|
E|-0----------------0--------7--------7-----------|


e|-7--5--3--3--2--0---2--2--2--2--3--2---0--0--0---0-|
B|--0--0--0--0--0--0---0--0--0--0--0--0---0--0--0----|
G|---0--0--0--0--0--0---2--2--2--2--2--2---0--0--0---|
D|-----------------------------1---------2-----------|
A|--------------------2---------------------2--------|
E|-0--------0----------------------------------3---0-|

Segunda parte (repetir dos veces):


e|-4--4--4--4--2--0----------------------9--9--9-9--11-9---|
B|--0--0--0--0--0--0--5--4--4--4--3--4----7--7--7--7---7--7--|
G|---1--1--1--1--1--1--2--2--2--2--2--2----8--8--8--8---8-8-|
D|----------------------4--4--4--4--4--4---------------------|
A|--------------------0--------0-----------------------------|
E|-0--------0----------------------------7--------7----------|
[ Tab from: http://www.guitartabs.cc/tabs/n/narciso_yepez/romance_anonimo_tab.html ]
e|-9--7--7--7--9--11---12--12--12--12--11--10-------|
B|--9--9--9--9--9---9----9---9---9---9---9---9------|
G|---9--9--9--9--9---9----9---9---9---9---9---9-----|
D|--------------------------------------------------|
A|--------------------------------------------------|
E|-0--------0----------0-----------0----------------|

e|-9--9--9--9--7--5---4--4--4--5--2---0--0--0---0--|
B|--5--5--5--5--5--5---4--4--4--4--4---0--0--0-----|
G|---6--6--6--6--6--6---2--2--2--2--2---1--1--1----|
D|------------------------------------2------------|
A|-0--------0---------2------------------2---------|
E|------------------------------------------4---0--|

Finaliza con primera parte(solo una vez):

e|-7--7--7--7--5--3--3--2--0--0--3--7--12--12--12--12----|
B|--0--0--0--0--0--0--0--0--0--0--0--0---0---0---0---0---|
G|---0--0--0--0--0--0--0--0--0--0--0--0---0---0---0---0--|
D|-------------------------------------------------------|
A|-------------------------------------------------------|
E|-0--------0--------0--------0--------0-----------0-----|

e|-10--8---8--7--5--5--7--8--7--8--7--11--8--7----|
B|---0--0---5--5--5--5--5--5--7--7--7---7--7--7---|
G|----0--0---5--5--5--5--5--5--8--8--8---8--8--8--|
D|------------------------------------------------|
A|---------0--------------------------------------|
E|-0----------------0--------7--------7-----------|


e|-7--5--3--3--2--0---2--2--2--2--3--2---0--0--0---0-|
B|--0--0--0--0--0--0---0--0--0--0--0--0---0--0--0----|
G|---0--0--0--0--0--0---2--2--2--2--2--2---0--0--0---|
D|-----------------------------1---------2-----------|
A|--------------------2---------------------2--------|
E|-0--------0----------------------------------3---0-|
Comments