Napalm Death - Repression Out Of Uniform Chords & Tabs

 

Repression Out Of Uniform Chords & Tabs

Napalm Death Chords & Tabs

Version: 1 Type: Tab 0 ratings
1 star 2 stars 3 stars 4 stars 5 stars
comments

Repression Out Of Uniform Tab

   
Band:  Napalm Death
Album: Words From the Exit Wound
Song:  Repression Out Of Uniform

Copyright (c)  Nuclear Blast 1998
Version 1.0 - December 14th

Transcribed By: Blake
Email:          dvsthrashmetal@hotmail.com

I only know the intro for the second guitar, If you have the tab
for the first please email it to me so i can fix it. My first tab
so dont bitch. And i tried to add times so you would know the timing
and what part your playing because its pretty much the same riff
diffrent notes.

NOTE: REPEAT #1 AND #2 NUMORUS TIMES THROUGH OUT THE SONG

 Standard tuning E A D G B E
This is done with some type of disortion

Riff 1
|-------------------------------------------------------------------|
|---6----6----6----6----6----6----6----6----------------------------|
|-5----5----5----5----5----5----5----5------------------------------|
|-------------------------------------------------------------------|
|-------------------------------------------------------------------|
|-------------------------------------------------------------------|
[ Tab from: http://www.guitartabs.cc/tabs/n/napalm_death/repression_out_of_uniform_tab.html ]
Riff 2
|-------------------------------------------------------------------|
|-------------------------------------------------------------------|
|-------------------------------------------------------------------|
|-------------------------------------------------------------------|
|-------------------------------------------------------------------|
|-5p4-4/3-3/2-3p2-5p4-4/-3p2-5p4-4/3-3p2----------------

Riff 3
|-------------------------------------------------------------------|
|-------------------------------------------------------------------|
|-------------------------------------------------------------------|
|-------------------------------------------------------------------|
|-5-5-5-6-5-5-5-4-5-5-5-6-5-5-5-4-5-5-5-6-5-5-5-4-------------------|
|-6-6-6-7-6-6-6-5-6-6-6-7-6-6-6-5-6-6-6-7-6-6-6-5-------------------|

Riff 4
|-------------------------------------------------------------------|
|-------------------------------------------------------------------|
|-------------------------------------------------------------------|
|-------------------------------------------------------------------|
|-3-3-3-4-3-3-3-2-3-3-3-4-3-3-3-2-3-3-3-4-3-3-3-2-------------------|
|-2-2-2-3-2-2-2-1-2-2-2-3-2-2-2-1-2-2-2-3-2-2-2-1-------------------|

Riff 5
|-------------------------------------------------------------------|
|-------------------------------------------------------------------|
|-------------------------------------------------------------------|
|-------------------------------------------------------------------|
|-------------4p3-3/2-3p2--------------4p3-3/2-3p2------------------|
|-4p3-4/3-3p2-------------4p3-4/3-3p2-------------------------------|



Order:
Riff 1 and Riff 2
Riff 3
Riff 1 and Riff 2
Riff 4
Riff 5
Comments