Napalm Death - Reflect On Conflict Chords & Tabs

 

Reflect On Conflict Chords & Tabs

Napalm Death Chords & Tabs

Version: 1 Type: Tab 0 ratings
1 star 2 stars 3 stars 4 stars 5 stars
comments

Reflect On Conflict Tab

NAPALM DEATH-Reflect On Conflict
Inside The Torn Apart - 1997

riff 1
|---------------------------------------------------------------------------------------|
|---------------------------------------------------------------------------------------|
|---------------------------------------------------------------------------------------|
|---------6-------------8-------------6----8---------6-------------8-------------6----7-|
|-32------4------3------6------3------4----6-32------4------3------6------3-----4----5-|
|-10-0000---0000-1-0000---0000-1-0000---00---10-0000---0000-1-0000---0000-1-0000---00---|


[ Tab from: http://www.guitartabs.cc/tabs/n/napalm_death/reflect_on_conflict_tab.html ]
riff 2
|---------------------|
|---------------------|
|---------------------|
|---------------------|
|-6---6---7-6---6---5-|
|--555-555---555-555--|




riff 3
|---------------|
|---------------|
|---------------|
|-8----9-8----7-|
|-6--7-7-6--7-5-|
|----5------5---|


riff 4
|---------------------------|
|---------------------------|
|---------------------------|
|---------------------------|
|-7-55-7-55-75-5-33-5-33-53-|
|-5-33-5-33-53-3-11-3-11-31-|

riff 5
|--------------|
|-----0------0-|
|-----4------4-|
|--------------|
|---5------3---|
|-3------1-----|

riff 6
|-------------------------------------|
|-------------------------------------|
|-7"-----4"---------------------------|
|-0"-----0"---------------------------|
|-5"-----2"-----322-322-32-322-322-32-|
|---------------100-100-10-100-100-10-|
Comments