Napalm Death - Negative Approach Chords & Tabs

 

Negative Approach Chords & Tabs

Napalm Death Chords & Tabs

Version: 1 Type: Tab 0 ratings
1 star 2 stars 3 stars 4 stars 5 stars
comments

Negative Approach Tab

Napalm Death - Negative Approach
'encoded' by Katham
detune down one whole step (E=D and so forth)
[ Tab from: http://www.guitartabs.cc/tabs/n/napalm_death/negative_approach_tab.html ]
Riff I (x7)
D--------------------------------|
A--------------------------------|
F--------------------------------|
C--7-7-----9-9--6-7-7-----9-9--6-|
G--5-5-9-9-7-7--4-5-5-9-9-7-7--4-|
D------7-7------------7-7--------|

Riff II (x4)
D-------------------------|
A-------------------------|
F-------------------------|
C--6-6-6-6-6-6-6-6--9-9-9-|
G--4-4-4-4-4-4-4-4--7-7-7-|
D-------------------------|

Riff I (x7)
Riff II (x8)

stuff:
/=Slide up
\=Slide down
^=Hammer
Comments