Napalm Death - Born On Your Knees Chords & Tabs

 

Born On Your Knees Chords & Tabs

Napalm Death Chords & Tabs

Version: 1 Type: Tab 0 ratings
1 star 2 stars 3 stars 4 stars 5 stars
comments

Born On Your Knees Tab

Napalm Death - Born On Your Knees
'encoded' by Katham
detune down one whole step (E=D and so forth)

Intro riff (2x)
D----------------------------------|
A----------------------------------|
F----------------------------------|
C--2-2-------------2-2-------------|
G--0-0-6-6-4-4-----0-0-6-6-4-4-----|
D------4-4-2-2---------4-4-2-2-----|

Riff I (2x)
D--------------------------|
A--------------------------|
F--------------------------|
C--------------------------|
G--7-6-7-6-7-6-7-6-7-6-7-6-|
D--5-4-5-4-5-4-5-4-5-4-5-4-|

Riff II (x1)
D----------------------------------|
A----------------------------------|
F----------------------------------|
C--5--4--2--5--4--2--5--4--2-5-2-2-|
G--3--2--0--3--2--0--3--2--0-3-0-0-|
D----------------------------------|

Riff I (x1)

Riff III (x1)
D----------------------------------|
A----------------------------------|
F----------------------------------|
C--5--4--2--5--4--2--5--4--2--5----|
G--3--2--0--3--2--0--3--2--0--3----|
D----------------------------------|

Riff IV (x1)		Feedback I
D----------------------|------------|
A----------------------|------------|
F----------------------|-7-9--------|
C--2-3-2-3-2-3--4--3-2-|------9-7---|
G--0-1-0-1-0-1--2--1-0-|----------10|
D----------------------|------------|

Riff IV (x1)		Feedback II
D----------------------|------------|
A----------------------|------(9)/10|
F----------------------|-7-9-7------|
C--2-3-2-3-2-3--4--3~2~|------------|
G--0-1-0-1-0-1--2--1~0~|------------|
D----------------------|------------|
[ Tab from: http://www.guitartabs.cc/tabs/n/napalm_death/born_on_your_knees_tab.html ]
Riff IV (x1)		Feedback III
D----------------------|------------|
A----------------------|------------|
F----------------------|-7-----9\7--|
C--2-3-2-3-2-3--4--3-2-|---4-4------|
G--0-1-0-1-0-1--2--1-0-|------------|
D----------------------|------------|

Riff IV (x1)		Feedback IV
D----------------------|------------|
A----------------------|------------|
F----------------------|------------|
C--2-3-2-3-2-3--4--3-2-|------------|
G--0-1-0-1-0-1--2--1-0-|-------5----|
D----------------------|-3-3-----3~-|

Riff V (x2)
D----------------------------------|
A----------------------------------|
F----------------------------------|
C----------------------------------|
G--5-5---5-5---5-5---7~~~----------|
D--3-3---3-3---3-3---5~~~----------|

D----------------------------------|
A----------------------------------|
F----------------------------------|
C----------------------------------|
G--5-5---5-5---5-5---7~~~----------|
D--3-3---3-3---3-3---5~~~----------|

D----------------------------------|
A----------------------------------|
F----------------------------------|
C----------------------------------|
G--5-5---5-5---5-5---7~~~----------|
D--3-3---3-3---3-3---5~~~----------|

D----------------------------------|
A----------------------------------|
F----------------------------------|
C----------------------------------|
G--5-5---5-5---5-5---5-7~----------|
D--3-3---3-3---3-3---3-5~----------|

Riff IV
Feedback I
Riff IV
Feedback II
Riff IV
Feedback III
Riff IV
Feedback IVb
D------------|
A------------|
F------------|
C------------|
G-------5-5--|
D-3-3-----3~~|

Riff VI (x2)
D--------------------|
A--------------------|
F--------------------|
C------2-----2-----2-|
G--6-4-0-6-4-0-6-4-0-|
D--4-2---4-2---4-2---|

Riff II
Riff VI (x3)
Riff II

It may look a bit messy, but I'm sure it isn't.

stuff:
/=Slide up
\=Slide down
^=Hammer
Comments