Napalm Death - As The Machine Rolls On Chords & Tabs

 

As The Machine Rolls On Chords & Tabs

Napalm Death Chords & Tabs

Version: 1 Type: Tab 0 ratings
1 star 2 stars 3 stars 4 stars 5 stars
comments

As The Machine Rolls On Tab

   
Napalm Death - As Machine Rolls On
'encoded' by Katham
detune down one whole step (E=D and so forth)

Intro riff (2x)
D----------------------------------|
A----------------------------------|
F----------------------------------|
C--------2-------2-------2-------2-|
G--5-4-5-0-5-4-5-0-5-4-5-0-5-4-5-0-|
D--3-2-3---3-2-3---3-2-3---3-2-3---|
[ Tab from: http://www.guitartabs.cc/tabs/n/napalm_death/as_the_machine_rolls_on_tab.html ]
Main riff (4x)
D------------------|
A------------------|
F------------------|
C------------------|
G--5-7-2---5-7-2---|
D--3-4-0---3-4-0---|

(Do some feedback...)

Solo (?)
D------|
A-9^11-|
F------|
C------|
G------|
D------|

Intro riff (1x)
Main riff (1x)
Intro riff (1x)
Main riff (1x)

stuff:
/=Slide up
\=Slide down
^=Hammer
Comments