Nancy Sinatra - These Boots Are Made For Walkin Chords & Tabs

 

These Boots Are Made For Walkin Chords & Tabs

Nancy Sinatra Chords & Tabs

Version: 2 Type: Bass Tab 0 ratings
1 star 2 stars 3 stars 4 stars 5 stars
comments

These Boots Are Made For Walkin Bass Tab

   
INTRO:
G--------------------------------------------------
D--------------------------------------------------
A-16/15/14/13/12/11/10/9/8/7/6/5/4/3/2/1-----------
E----------------------------------------0--0--0--0
[ Tab from: http://www.guitartabs.cc/tabs/n/nancy_sinatra/these_boots_are_made_for_walkin_btab_ver_2.html ]
VERSE:
G-------------------------------------------------------------
D-------------------------------------------------------------
A-------------------------------------------------------------
E-0-00-0-00-0-00-0-00-0-00-0-00-0-00-0-00-5-55-5-55-5-55-5-55-

G---------------------
D---------------------
A---------------------
E-0-00-0-00-0-00-0-00-

CHROUS:
G------------------------------------------
D------------------------------------------
A-10-10-10-97--7-8-9-10--10-10-97-78910109-
E------------------------------------------

OUTRO:
G-----------
D-----------  PLAY 8X
A-7--0357---
E--0------0-

SONG ORDER:
INTRO
VERSE
CHORUS
INTRO
VERSE
CHORUS
INTRO
VERSE
CHORUS
INTRO
OUTRO
Comments