Nancy Sinatra - Bang Bang Chords & Tabs

 

Bang Bang Chords & Tabs

Nancy Sinatra Chords & Tabs

Version: 2 Type: Tab 0 ratings
1 star 2 stars 3 stars 4 stars 5 stars
comments

Bang Bang Tab

----------------------------------------------------------------------------
         	     BANG BANG (my baby shot me down) 
----------------------------------------------------------------------------
Tabbed by: Aiden
Email: longtran@yahoo.com

INTRO:
e|--------------------------------------------------------------------------|
B|-----0-----0------------1-----1-0----------0-----1-0----------------0-----|
G|----0----0---2---0-----2----2-------2-----2----------2---0---------0------|
D|---2---2--------------2---2--------------1-----1-------------4----2-------|
A|--2------------------0------------------2----2-------------------2--------|
E|--------------------------------------------------------------------------|
    
VERSE 1:    
e|-----------------------------------------------------------0--------------|
B|-----0-----------------------------0----------------------0---------------|
G|----0-----------------------------0----------------------0----------------|
D|---2-----------------------------2----------------------0-----------------|
A|--2-----------------------------2-----------------------------------------|
E|--------------------------------------------------------------------------|
    I was five and he was six. We rode on horses made of sticks

e|--------------------------------------------------------------------------|
B|-----1-----------------------------------------0--------------------------|
G|----2-----------------------------------------2---------------------------|
D|---2-----------------------------------------1----------------------------|
A|--0-----------------------------------------2-----------------------------|
E|--------------------------------------------------------------------------|
    He wore black and I wore white. He would always win the fight
[ Tab from: http://www.guitartabs.cc/tabs/n/nancy_sinatra/bang_bang_tab_ver_2.html ]
CHORUS 1:
e|--------------------------------------------------------------------------|
B|----------0--------------------------0------------------------------------|
G|---------0--------------------------0-------------------------------------|
D|--------2--------------------------2--------------------------------------|
A|-------2--------------------------2---------------------------------------|
E|--------------------------------------------------------------------------|
    Bang Bang. He shot me down Bang Bang. I hit the ground

e|-----------------------------------------------2--------------------------|
B|----------1---------------------------0-------0-------------0-------------|
G|---------2---------------------------2-------2-------------0--------------|
D|--------2---------------------------1-------1-------------2---------------|
A|-------0---------------------------2---------------------2----------------|
E|--------------------------------------------------------------------------|
    Bang Bang. That awful sound Bang Bang. My baby shot me down

INTRO

VERSE 2:
Seasons came and changed the time. When I grew up. I called him mine
He would always laugh and say "Remember when we used to play?"

CHORUS 2:
Bang Bang. I shot you down Bang Bang. You hit the ground
Bang Bang. That awful sound Bang Bang. I used to shoot you down

INTRO

BRIDGE:
e|----------------------------------3--2------------------------------------|
B|---------------------------------5--3-------------------------------------|
G|--------------------------------4--2--------------------------------------|
D|--------------------------------------------------------------------------|
A|--------------------------------------------------------------------------|
E|--------------------------------------------------------------------------|
    Music played and people sang.        Just for me the church bells rang

e|--------------------------------------------------------------------------|
B|-----1---1---1---3---1---3---1---1-----0--1~3-1------0--------------------|
G|----0---0---0---0---0---0---0---0-----2--2----------2---------------------|
D|---2---2-------2-------2-------2-----1-------------1----------------------|
A|--3-----------------------------------------------2-----------------------|
E|--------------------------------------------------------------------------|


VERSE 3:
Now he's gone. I don't know why. And till this day. Sometimes I cry
He didn't even say "goodbye". He didn't take the time to lie

CHORUS 3:
Bang Bang. He shot me down Bang Bang. I hit the ground
Bang Bang. That awful sound Bang Bang. My baby shot me down

INTRO
Comments