Nancy Sinatra - Bang Bang Chords & Tabs

 

Bang Bang Chords & Tabs

Nancy Sinatra Chords & Tabs

Version: 1 Type: Tab 0 ratings
1 star 2 stars 3 stars 4 stars 5 stars
comments

Bang Bang Tab

-------------------------------------------------------------------------------
			     Bang Bang - Nancy Sinatra
-------------------------------------------------------------------------------
Tabbed by: Dave McGinn
Email: 

Tuning: Standard
[ Tab from: http://www.guitartabs.cc/tabs/n/nancy_sinatra/bang_bang_tab.html ]
e|-1-------------1---------0---------------1-------
B|-1------1------2---2-1---1-----2-1-------1-------
G|-1----1---3-1--3--3----3-3---------3-1-0-1-------
D|-3--3----------3-3-------2---2-----------3-------
A|-------------------------3-3-------------3-------
E|-------------------------------------------------

This is the intro and the main riff...I can't make out what's played
during the verses because it's so faint, but since there's no other 
transcriptions for this on Ultimate-Guitar, I decided to give it a shot.
It's in the key of F minor, for anyone who cares!

Dave

===============================================================================
Comments