Nagarbaul - Maa Chords & Tabs

 

Maa Chords & Tabs

Nagarbaul Chords & Tabs

Version: 1 Type: Tab 0 ratings
1 star 2 stars 3 stars 4 stars 5 stars
comments

Maa Tab

   
hi everyone, once again we meet. is this cool or what... behold, the TAB for Maa by
Nagar Baul(james)!
the song arrangement exclusively concentrates on the keyboard as opposed to guitars.
the forum member that requested for this song being a keyboardist, I transcribed it(or
rather the solo parts) for both keys and guitars. hope you find it helpful, whether
you're a guitarist or a keys player.

here's the lyrics...

verse 1:
dosh maash dosh deen kore gorbhe dhaaron
koshter teebrotaae koreche amaae laalon
hothaat kothaae naa bole haariye gelo
jonmaantorer baadhon kothaa haaralo

prechorus:
shobaai bole oi akaashe lukiye aache
khuje dekho paabe dur nokkhotro maajhe

chorus:
raater taara amaae ki tui bolte paarish
kothaae aache kemon aache maa
ore taara raater taara maa ke jaaniye dish
onek kedechi aar kaadte paari naa

verse 2:
maayer kole shuye haarano shey shukh
onno mukhe khuje phiri shei priyo mukh
onek reener jaale maa go bedhechile taai
bishaader obhoyaaronne bhoy tobu paai

===================================================

chord prog.

intro ----------- (Bm-A-G-G)x2
dosh maash ------- D-D-G-G-D-D-A-A
hothaat kothaae - (D-D-G-G)x2
shobaai bole ---- (A-A-D-D)x2
raater taara ---- (G-G-A-A-G-G-D-D)x2

keys solo ------- (Bm-A-G-G)x2
------------------ Em-G7-Am7-Am7-G#-C-D7-D7

notes that build the chords
G7 -- G B D F
Am7 - A C E G
D7 -- D F#A C

===================================================

keys solo 1 --

|--------|--------|--------|--------||--------|--------|--------|------**|
|--------|--------|--------|--------||--------|--------|--------|------Dc|
|--------|--------|--------|--------||--------|--------|--------|--------|

.Bm . . . . . . . .A. . . . . . . . . G . . . . . . . . . . . . . . . . .
|--------|--------|--------|--------||--------|--------|--------|--------|
|A-------|--------|--------|----B-f-||--------|--------|--------|----D-E-|
|--------|--------|--------|--------||--------|--------|--------|--------|

.Bm . . . . . . . .A. . . . . . . . . G . . . . . . . . . . . . . . . . .
|--------|--------|--------|--------||--------|--------|--------|--------|
|E===f---|--------|----f---|--A-E-f-||D-------|--------|------D==c-c=A-A-|
|--------|--------|--------|--------||--------|--------|--------|----*-*-|

.Em . . . . . . . .G7 . . . . . . . . Am7 . . . . . . . . . . . . . . . .
|--------|--------|--------|--------||--------|--------|--------|--------|
|B-------|--------|--------|B=C-D-A-||--------|--------|--E-G-A-|G-C-A-G-|
|*-------|--------|--------|------*-||--------|--------|--*-*-*-|*---*-*-|

.G# . . . . . . . .C. . . . . . . . . D7. . . . . . . . . . . . . . . . .
|--------|--------|--------|--------||--------|--------|--------|--------|
|C-------|--D-C-D-|D===E---|----DEG-||EDC-----|------A-|C-A-C=D-|--------|
|--------|--------|--------|--------||--------|------*-|--*-----|--------|

legend
C (capital C) -- the note C
c (small C) ---- the note C# (only C# and F# used, the natural F never used)
* on top ------- octave up from middle
* on bottom ---- octave down from middle
D==E ----------- bend on keyboard from the note D to E

===================================================

keys solo 2 --
same as solo 1, only with variations in two places
1. measure 11-12
2. measure 30-31

|--------|--------|--------|--------||--------|--------|--------|------**|
|--------|--------|--------|--------||--------|--------|--------|------Dc|
|--------|--------|--------|--------||--------|--------|--------|--------|

.Bm . . . . . . . .A. . . . . . . . . G . . . . . . . . . . . . . . . . .
|--------|--------|--------|--------||--------|--------|--------|--------|
|A-------|--------|--------|----B-f-||--------|--------|--------|----D-E-|
|--------|--------|--------|--------||--------|--------|--------|--------|

.Bm . . . . . . . .A. . . . . . . . . G . . . . . . . . . . . . . . . . .
|--------|--------|--------|--------||--------|--------|--------|--------|
|E===f---|--------|------A-|E-D-E-f-||D-------|--------|------D==c-c=A-A-|
|--------|--------|--------|--------||--------|--------|--------|----*-*-|

.Em . . . . . . . .G7 . . . . . . . . Am7 . . . . . . . . . . . . . . . .
|--------|--------|--------|--------||--------|--------|--------|--------|
|B-------|--------|--------|B=C-D-A-||--------|--------|--E-G-A-|G-C-A-G-|
|*-------|--------|--------|------*-||--------|--------|--*-*-*-|*---*-*-|

.G# . . . . . . . .C. . . . . . . . . D7. . . . . . . . . . . . . . . . .
|--------|--------|--------|--------||--------|--------|--------|--------|
|C-------|--D-C-D-|D===E---|----DEG-||EDC-----|--A-C-D==E-------|--------|
|--------|--------|--------|--------||--------|--*-----|--------|--------|

===================================================

keys solo 1 for guitar --
[ Tab from: http://www.guitartabs.cc/tabs/n/nagarbaul/maa_tab.html ]
e|--------|--------|--------|--------||--------|--------|--------|------)9|
B|--------|--------|--------|--------||--------|--------|--------|--------|
G|--------|--------|--------|--------||--------|--------|--------|--------|
D|--------|--------|--------|--------||--------|--------|--------|--------|
A|--------|--------|--------|--------||--------|--------|--------|--------|
E|--------|--------|--------|--------||--------|--------|--------|--------|

..Bm . . . . . . . .A. . . . . . . . . G . . . . . . . . . . . . . . . . .
e|--------|--------|--------|--------||--------|--------|--------|--------|
B|)-------|--------|--------|----@-7-||--------|--------|--------|--------|
G|--------|--------|--------|--------||--------|--------|--------|----7-9-|
D|--------|--------|--------|--------||--------|--------|--------|--------|
A|--------|--------|--------|--------||--------|--------|--------|--------|
E|--------|--------|--------|--------||--------|--------|--------|--------|

..Bm . . . . . . . .A. . . . . . . . . G . . . . . . . . . . . . . . . . .
e|--------|--------|--------|--------||--------|--------|--------|--------|
B|--------|--------|----7---|--)-----||--------|--------|--------|--------|
G|9---B---|--------|--------|----9-!-||7-------|--------|--------|--------|
D|--------|--------|--------|--------||--------|--------|------!-|r-!\7-7/|
A|--------|--------|--------|--------||--------|--------|--------|--------|
E|--------|--------|--------|--------||--------|--------|--------|--------|
... . . . . . . . . . . . . . . . . . . . . . . . . . . . . . .*prebend on fret 11

..Em . . . . . . . .G7 . . . . . . . . Am7 . . . . . . . . . . . . . . . .
e|--------|--------|--------|--------||--------|--------|--------|--------|
B|--------|--------|--------|--------||--------|--------|--------|--------|
G|--------|--------|--------|--------||--------|--------|--------|--5-----|
D|9-------|--------|--------|/)--@-7-||--------|--------|----5-7-|5---7-5-|
A|--------|--------|--------|--------||--------|--------|--7-----|--------|
E|--------|--------|--------|--------||--------|--------|--------|--------|

..G# . . . . . . . .C. . . . . . . . . D7. . . . . . . . . . . . . . . . .
e|--------|--------|--------|--------||--------|--------|--------|--------|
B|--------|--------|--------|------8-||--------|--------|--------|--------|
G|5-------|--7-5-7-|7---B---|----79--||975-----|--------|--------|--------|
D|--------|--------|--------|--------||--------|------7-|)-7-)-B-|--------|
A|--------|--------|--------|--------||--------|--------|--------|--------|
E|--------|--------|--------|--------||--------|--------|--------|--------|

legend
) fret 10
! fret 11
@ fret 12
/ slide up
\ slide down
B bend full step(equivalent to 2 frets)
r release half step(equivalent to 1 fret)

===================================================

keys solo 2 for guitar --
same as solo 1, only with variation in two places
marked with the sign <*****************>

e|--------|--------|--------|--------||--------|--------|--------|------)9|
B|--------|--------|--------|--------||--------|--------|--------|--------|
G|--------|--------|--------|--------||--------|--------|--------|--------|
D|--------|--------|--------|--------||--------|--------|--------|--------|
A|--------|--------|--------|--------||--------|--------|--------|--------|
E|--------|--------|--------|--------||--------|--------|--------|--------|

..Bm . . . . . . . .A. . . . . . . . . G . . . . . . . . . . . . . . . . .
e|--------|--------|--------|--------||--------|--------|--------|--------|
B|)-------|--------|--------|----@-7-||--------|--------|--------|--------|
G|--------|--------|--------|--------||--------|--------|--------|----7-9-|
D|--------|--------|--------|--------||--------|--------|--------|--------|
A|--------|--------|--------|--------||--------|--------|--------|--------|
E|--------|--------|--------|--------||--------|--------|--------|--------|

..Bm . . . . . . . .A. . . . . . . . . G . . . . . . . . . . . . . . . . .
e|--------|--------|--------|--------||--------|--------|--------|--------|
B|--------|--------|------/)|--------||--------|--------|--------|--------|
G|9---B---|--------|--------|9-7-9-!-||7-------|--------|--------|--------|
D|--------|--------|--------|--------||--------|--------|------!-|r-!\7-7/|
A|--------|--------|--------|--------||--------|--------|--------|--------|
E|--------|--------|--------|--------||--------|--------|--------|--------|
... . . . . . . . .<*****************>. . . . . . . . . . . . .*prebend on fret 11

..Em . . . . . . . .G7 . . . . . . . . Am7 . . . . . . . . . . . . . . . .
e|--------|--------|--------|--------||--------|--------|--------|--------|
B|--------|--------|--------|--------||--------|--------|--------|--------|
G|--------|--------|--------|--------||--------|--------|--------|--5-----|
D|9-------|--------|--------|/)--@-7-||--------|--------|----5-7-|5---7-5-|
A|--------|--------|--------|--------||--------|--------|--7-----|--------|
E|--------|--------|--------|--------||--------|--------|--------|--------|

..G# . . . . . . . .C. . . . . . . . . D7. . . . . . . . . . . . . . . . .
e|--------|--------|--------|--------||--------|--------|--------|--------|
B|--------|--------|--------|------8-||--------|--------|--------|--------|
G|5-------|--7-5-7-|7---B---|----79--||975-----|----5-7-|B-------|--------|
D|--------|--------|--------|--------||--------|--7-----|--------|--------|
A|--------|--------|--------|--------||--------|--------|--------|--------|
E|--------|--------|--------|--------||--------|--------|--------|--------|
... . . . . . . . . . . . . . . . . . . . . . .<*****************>

===================================================
Comments