Nada Surf - Telescope Chords & Tabs

 

Telescope Chords & Tabs

Nada Surf Chords & Tabs

Version: 1 Type: Tab

Telescope Tab

   
Artist: Nada Surf
Track: Telescope
Album: Karmic

Intro:

| E | Em | B | Em | x8

| B | A | A |


Bridge/Solo:

 Guitar 1
| F# | B | F# | B |

 Guitar 2
|----------------|----------------|----------------|----------------|
|----------------|----------------|----------------|--7-----7---7---|
|----------------|----------------|----------------|----------------|
|----------------|----------------|----------------|----------------|
|--------------6-|--7---6-7-6-9---|7---7---6-7---9-|------9---9-----|
|2---2---2-6-----|----------------|----------------|----------------|

 Guitar 1
| F# | B | F# | B |

 Guitar 2
|----------------|----------------|5---4---4-5---5-|--12-11-9-7-----|
|9---7---5-7---7-|----7---b7--(7)-|----------------|----------------|
|----------------|----------------|----------------|----------------|
|----------------|--4---4---------|----------------|----------------|
|----------------|----------------|----------------|----------------|
|----------------|----------------|----------------|----------------|


| F# | G# | G# | G# |

| G# | G# | G# | G# |

| G#|


Chorus:
[ Tab from: http://www.guitartabs.cc/tabs/n/nada_surf/telescope_tab.html ]
| B | A | A | E | x2

| Em | B | Em|


Second Solo:

 Guitar 1
| E | Em | B | Em |

 Guitar 2
|----------------|----------------|----------------|----------------|
|7-------7-------|7-------7-7-7-7-|7---7---7---7-7-|7-7^9^7---------|
|----4-------4---|----4-----------|----------------|--------6^4-----|
|----------------|----------------|----------------|----------------|
|----------------|----------------|----------------|----------------|
|----------------|----------------|----------------|----------------|

 Guitar 1
| E | Em | B | Em |

 Guitar 2
|----------------|----------------|----------------|----------------|
|7---7---7---7-7-|--7---7-7-7-7---|7---7---7---7-7-|--7-4-----------|
|----------------|----------------|----------------|------6-4-------|
|----------------|----------------|----------------|----------------|
|----------------|----------------|----------------|----------------|
|----------------|----------------|----------------|----------------|

Last Verse ("I've been distracted from the...")

| E | Em | B | Em |


Outro:

| F# | B | F# | B | x4

| F# | Gm# | Gm# | G# |

Gm# to end