Nada Surf - Do It Again Chords & Tabs

 

Do It Again Chords & Tabs

Nada Surf Chords & Tabs

Version: 1 Type: Bass Tab 0 ratings
1 star 2 stars 3 stars 4 stars 5 stars
comments

Do It Again Bass Tab

   
Band : Nada Surf
Song title : Do It Again
Tuning : E-A-D-G ( standard)
Difficulty : easy (novice)

Tabbed by : Natsuka
E-mail : Nelson.gubler@gmail.com


Riff 1 : 

G|--------------------------------------------|
D|--------------------------------------------|
A|---2--------2--2---------5--------5---------|
E|-2---2-2--2-------2----5---5-5--5----5------|x6

Riff 2 : 

G|-----------------------------------------------------------------------|
D|-----------------------------------------------------------------------|
A|-------------------------------------5-5-7-5--5-5-5--0-0-2-0--0-0-0----|
E|-5/7-7-5-7--7-7-7--5/7-7-5-7--7-7-7------------------------------------|x2

Riff 1 V2 : 

G|--------------------------------------------|
D|--------------------------------------------|
A|---2--------2--2---------5--------5---------|
E|-2---2-2--2-------2----5---5-5--5----5------|x4

G|-----------------------------------------|
D|-----------------------------------------|
A|---2--------2--2---------5--------5------|
E|-2---2-2--2-------2----5---5-5--5--------|


Riff 3 : 

G|--------------------------------------------------------------------|
D|--------------------------------------------------------------------|
A|-5-5-5-5-5-5-5-5-5-5-5-5-5-5-5-5-2-2-2-2-2-2-2-2--------------------|
E|-------------------------------------------------3-3-3-3-3-3-3-3----|

G|---------------------------------------------------------------------|
D|---------------------------------------------------------------------|
A|-5-5-5-5-5-5-5-5-/9-9-9-9-9-9-9-9-2-2-2-2-2-2-2-2--------------------|
E|--------------------------------------------------3-3-3-3-3-3-3-3----|


Riff 2 : 

G|-----------------------------------------------------------------------|
D|-----------------------------------------------------------------------|
A|-------------------------------------5-5-7-5--5-5-5--0-0-2-0--0-0-0----|
E|-5/7-7-5-7--7-7-7--5/7-7-5-7--7-7-7------------------------------------|x4

Riff 1 : 

G|--------------------------------------------|
D|--------------------------------------------|
A|---2--------2--2---------5--------5---------|
E|-2---2-2--2-------2----5---5-5--5----5------|x1

Riff 4 : 

G|--------------------------------------------------------------------|
D|--------------------------------------------------------------------|
A|-5-5-5-5-5-5-5-5-5-5-5-5-5-5-5-5-2-2-2-2-2-2-2-2--------------------|
E|-------------------------------------------------3-3-3-3-3-3-3-3----|
[ Tab from: http://www.guitartabs.cc/tabs/n/nada_surf/do_it_again_btab.html ]
G|---------------------------------------------------------------------|
D|---------------------------------------------------------------------|
A|-5-5-5-5-5-5-5-5-/9-9-9-9-9-9-9-9-2-2-2-2-2-2-2-2--------------------|
E|--------------------------------------------------3-3-3-3-3-3-3-3----|

G|--------------------------------------------------------------------|
D|--------------------------------------------------------------------|
A|-5-5-5-5-5-5-5-5-5-5-5-5-5-5-5-5-5-5-5-5-5-5-5-5-5-5-5-4-4-4-4-4----|
E|--------------------------------------------------------------------|

G|---------------------------------------------------------------------|
D|---------------------------------------------------------------------|
A|-2-2-2-2-2-2-2-2-2-2-2-2-2-2-2-2-------------------------------------|
E|---------------------------------3-3-3-3-3-3-3-3-3-3-3-3-3-3-3-3-----|

G|--------------------------------------------------------------------|
D|--------------------------------------------------------------------|
A|-5-5-5-5-5-5-5-5-5-5-5-5-5-5-5-5-5-5-5-5-5-5-5-5-5-5-5-4-4-4-4-4----|
E|--------------------------------------------------------------------|

G|--------------------------------------------------------------------------|
D|--------------------------------------------------------------------------|
A|-2-2-2-2-2-2-2-2-2-2-2-2-2-2-2-2-----------------/10-10-10-10-10-10-10-10-|
E|---------------------------------3-3-3-3-3-3-3-3--------------------------|

G|--------------------------------------------------------------------|
D|--------------------------------------------------------------------|
A|-5-5-5-5-5-5-5-5-5-5-5-5-5-5-5-5-5-5-5-5-5-5-5-5-5-5-5-4-4-4-4-4----|
E|--------------------------------------------------------------------|

G|--------------------------------------------------------------------------|
D|--------------------------------------------------------------------------|
A|-2-2-2-2-2-2-2-2-2-2-2-2-2-2-2-2-----------------/10-10-10-10-10-10-10-10-|
E|---------------------------------3-3-3-3-3-3-3-3--------------------------|

End : 

G|--------------------------------------------------------------------|
D|--------------------------------------------------------------------|
A|-5-5-5-5-5-5-5-5-5-5-5-5-5-5-5-5-5-5-5-5-5-5-5-5-5-5-5-4-4-4-4-4----|
E|--------------------------------------------------------------------|

G|---------------------------------------|
D|---------------------------------------|
A|-2-2-2-2-2-2-2-2-2-2-2-2-2-2-2-2-------|
E|---------------------------------3-----|
Comments