Nachojiab - Red Hot Universally Speaking Chords & Tabs

 

Red Hot Universally Speaking Chords & Tabs

Nachojiab Chords & Tabs

Version: 1 Type: Tab 0 ratings
1 star 2 stars 3 stars 4 stars 5 stars
comments

Red Hot Universally Speaking Tab

e|---------------------------------------------------|
B|---------------------------------------------------|
G|-12-10-8-10-8-7----8-7-8-10--8-7-8-10--------------|
D|-------------------------------------/8---8--8-8-8-|
A|---------------------------------------------------|
E|---------------------------------------------------|
[ Tab from: http://www.guitartabs.cc/tabs/n/nachojiab/red_hot_universally_speaking_tab.html ]
e|---------------------------------------------------|
B|------------------------------------/11---11-11-11-|
G|-12-10-8-10-8-7----8-7-8-10-8-7-8-10---------------|
D|---------------------------------------------------|
A|---------------------------------------------------|
E|---------------------------------------------------|

e|--------------------------------------------------|
B|--------------------------------------------------|
G|-12-10-8-10-8p7----8-7-8-10--8-7-8-7--------------|
D|------------------------------------/8---8--8-8-8-|
A|--------------------------------------------------|
E|--------------------------------------------------|

e|------------------------------------|
B|------------------------------------|
G|-------------------------8~~~-------|
D|-10-8-6-8-6-5-------8~~~------------|
A|--------------6~~~------------------|
E|------------------------------------|
Comments