Nachojiab - Porque Te Quiero Chords & Tabs

 

Porque Te Quiero Chords & Tabs

Nachojiab Chords & Tabs

Version: 1 Type: Tab 0 ratings
1 star 2 stars 3 stars 4 stars 5 stars
comments

Porque Te Quiero Tab

1-------5--6--8-6-6-5-6-|-------5-6--8-6-6-5-6-|
2---6-8-----------------|---6-8----------------|
3-----------------------|----------------------| ( K )
4-----------------------|----------------------|
5-----------------------|----------------------|
6-----------------------|----------------------|
[ Tab from: http://www.guitartabs.cc/tabs/n/nachojiab/porque_te_quiero_tab.html ]
1-------5--6--8-10-8-6-8|---5-6-8-10-8-8-6-6-5-|
2----8------------------|-8--------------------
3-----------------------|----------------------|
4-----------------------|----------------------|
5-----------------------|----------------------|
6-----------------------|----------------------|



1-------5--6--8-10-8-6-8|-----5-6-8-10-8-8-6-6-5--5- |
2---8-------------------|---8--------------------2--2|
3-----------------------|----------------------------|
4-----------------------|----------------------------|
5-----------------------|----------------------------|
6-----------------------|----------------------------|
Comments