Nachojiab - El Humo De Mi Fasito Chords & Tabs

 

El Humo De Mi Fasito Chords & Tabs

Nachojiab Chords & Tabs

Version: 1 Type: Tab 0 ratings
1 star 2 stars 3 stars 4 stars 5 stars
comments

El Humo De Mi Fasito Tab

1|-4-----4-----4-4-4-|-4-----4-----4-4-4-|-6-----6-----6-6-6-|---------------------|
2|-----4-----4-------|-----5-----5-------|-----5-----5-------|-5-4-2-2-0-0-4-2-0---|
3|---4-----4---------|---6-----6---------|---6-----6---------|-------------------3-|
4|-------------------|-------------------|-------------------|---------------------|
5|-------------------|-------------------|-------------------|---------------------|
6|-------------------|-------------------|-------------------|---------------------|
[ Tab from: http://www.guitartabs.cc/tabs/n/nachojiab/el_humo_de_mi_fasito_tab.html ]
1|-4-----4-----4-4-4-|-4-----4-----4-4-4-|-6-----6-----6-6-6-|---------------------|
2|-----4-----4-------|-----5-----5-------|-----5-----5-------|-5-4-2-2-0-0-4-2-0---|
3|---4-----4---------|---6-----6---------|---6-----6---------|-------------------3-|
4|-------------------|-------------------|-------------------|---------------------|
5|-------------------|-------------------|-------------------|---------------------|
6|-------------------|-------------------|-------------------|---------------------|
[ Tab from: http://www.guitartabs.cc/tabs/n/nachojiab/el_humo_de_mi_fasito_tab.html ]
1|----------------|
2|--0-2-4-2-0-----|
3|-3----------3-1-|
4|----------------|
5|----------------|
6|----------------|

Comments