Nachojiab - De Musica Ligera Chords & Tabs

 

De Musica Ligera Chords & Tabs

Nachojiab Chords & Tabs

Version: 1 Type: Tab 0 ratings
1 star 2 stars 3 stars 4 stars 5 stars
comments

De Musica Ligera Tab

E|---------------------------------------------------|
B|---------------------------------------------------|
G|---------------------------------------------------|
D|--------------------------------------------------°|
A|---2-2-----5-55----------2-2-----/75-------------°|
E|------333-------5-55-55------333--------5-55-55----| 

[ Tab from: http://www.guitartabs.cc/tabs/n/nachojiab/de_musica_ligera_tab.html ]
E|-------------------------------------------------------------------|
B|-------------------------------------------------------------------|
D|----------------------------------------2-4-2----------------------|
A|2-2-4-5-4-5-4-2-0---2-----------2-2-4-5-------5-4-2-2/12-----------|
E|------------------2---2-2-0-2-0------------------------------------|
Comments