N E R D - She Wants To Move Chords & Tabs

 

She Wants To Move Chords & Tabs

N E R D Chords & Tabs

Version: 1 Type: Tab 0 ratings
1 star 2 stars 3 stars 4 stars 5 stars
comments

She Wants To Move Tab

   
hey guys, this track is soooooooo kool. I love it. 

If uve got any improvments (e.g. the solo + chorus) then email me @ ryan_hewitt_333@hotmail.com

l8r, Ryan

-standard tuning (e,a,d,g,b,e)
[ Tab from: http://www.guitartabs.cc/tabs/n/n_e_r_d/she_wants_to_move_tab.html ]
This is the main thing, which is probably what your looking for...
------------------- ---------------------- ---------------------
------------------- ---------------------- ---------------------
------------------- ---------------------- ---------------------
---4--4-----5-5-5-- -----4--4-----5-5-5--- ---4--4-----5-5-5----
---4--4-----5-5-5-- -----4--4-----5-5-5--- ---4--4-----5-5-5----
---2--2-----3-3-3-- -----2--2-----3-3-3--- ---2--2-----3-3-3----


-----------------
-----------------
-----------------
--7-7---9-9------
--7-7---9-9------
--5-5---7-7------

...this song's all about rythem, you have to listen to the song and work it out.
You do that for most of the song. the bass is pretty much the same.
Comments