Myzell Chris - Sufficiency Chords & Tabs

 

Sufficiency Chords & Tabs

Myzell Chris Chords & Tabs

Version: 1 Type: Tab 0 ratings
1 star 2 stars 3 stars 4 stars 5 stars
comments

Sufficiency Tab

Title: Sufficiency
Artist: Chris Myzell (EP)
Copyright 2003 Time Bomb Recordings, a unit of BMG
Entertainment, 6 West 57th street, New York, N.Y. 10019
Tabbed with permission by: Kathryn Pickard

* This song is a little different than his normal work but
it is a really good song and really good guitar work.

Intro (acoustic with steel strings) standard tuning
--------------------5-----------------------------------------------
--------------------5-----------------------------3-3--33-----------* Play this part
-----0------0------5-----------------0------0----0-0--0-------------  4 times!
----2------0------7------2----0-----2------0--0^2----2-------2----0-
---2------2------7------3-3--0-0---2------2-----------------3-3--0-0
--0----0^3----0^5------3----2-----0----0^3-----------------3----2---
[ Tab from: http://www.guitartabs.cc/tabs/m/myzell_chris/sufficiency_tab.html ]
---------------------                   ------------------------
---------------------                   ------------------------
----0----0-----------*play this         ------------------------
---2-2--0----0---0--- 4 times and       -----2-------------------
--3----2----0-0-0-0-- end with------    -----2-------------------
-----------3---2-----                   --2--0--------------------
                                             * At the E5 distortion 
                                               kicks in
This is the heavy part!
           ---------------------
           ---------------------
           ---------------------* Now play this riff 4 times
           --2------------------
           --2--44-3-55-4-66-5--
Palm mute E--0--22^1^33^2^44^3--


           --------------------------
           --------------------------
           --------------------------* Now play this riff 4 times
           --2-----------------------  then go back to the other 
           --2---5^7--8^7--10^8--5---  heavy part!
Palm mute E--0-00---00---00----00----

That is i hope you like it I know I did Gace and Peace K E P
Comments