Myzell Chris - Someone Just Like You Chords & Tabs

 

Someone Just Like You Chords & Tabs

Myzell Chris Chords & Tabs

Version: 1 Type: Tab 0 ratings
1 star 2 stars 3 stars 4 stars 5 stars
comments

Someone Just Like You Tab

Title: Someone Just Like You
Artist: Chris Myzell
Copyright 2003 Time Bomb Recordings, a unit of BMG Entertainment,
6 West 57th Street, New York, N.Y. 10019
Tabbed with permission by: Kathryn Pickard 

Intro standard tuning

--------3---------3--------3----------------
-------3---------3--------3-----------------
------0---------0--------0--------0---------
-----2---------0--------2--------2----------
--0^2---------2------0^3------0^2----2------
-----------0^3-----------------------3------

--------3---------3--------3--3-3-3-3--3-3-3-3---
-------3---------3--------3---3-3-3-3--3-3-3-3---
------0---------0--------0----2-2-2-2--2-2-2-2---
-----2---------0--------2------------------------
--0^2---------2------0^3-------------------------
-----------0^3-----------------------------------

Chorus and Verse are the same (strum patttern)
[ Tab from: http://www.guitartabs.cc/tabs/m/myzell_chris/someone_just_like_you_tab.html ]
--3333-3--3333-3--3333-3--33-3--3333-3--3333-3--3333-3--3333--33---
--3333-3--3333-3--3333-3--33-3--3333-3--3333-3--3333-3--3333--33---
--0000-0--0000-0--0000-0--00-0--0000-0--0000-0--0000-0--2222--22---
--2222-2--0000-0--2222-2--22-0--2222-2--0000-0--2222-2-------------
--2222-2--2222-2--3333-3--22-2--2222-2--2222-2--3333-3-------------
----------3333-3-------------3----------3333-3---------------------

Intrulude

(E)--3333--333-333-333--333-333-333--33----
(B)--3333--000^333-333--000^333-333--33----
(G)--2222--000-000^222--000-000^222--22----

Outro

--------3--------3-------3------------33------
-------3--------3-------3-------------33------
------0--------0-------0-------0------00------
-----2--------0-------2-------2-------00------
--0^2--------2-----0^3-----0^2---2----22------
----------0^3--------------------3----33------
That is it Hope you like it Grace and Peace K E P

Comments