Myzell Chris - Big Girls Blouse Chords & Tabs

 

Big Girls Blouse Chords & Tabs

Myzell Chris Chords & Tabs

Version: 1 Type: Tab 0 ratings
1 star 2 stars 3 stars 4 stars 5 stars
comments

Big Girls Blouse Tab

Title:Big Girls Blouse
Artist: Chris Myzell
Copyright 2003 Time Bomb Recordings, a unit of BMG
Entertainment 6 west 57th street, New York, N.Y. 10019
Tabbed with permission by: Kathryn Pickard

Intro (Note the distortion and feedback sound) 
standard tuning

Riff1
----------------------------
----------------------------*Note riff 1 play
----------------------------5 times and palm
--------7777--------9999----mute!!!!!!!!!!
--4444--5555--7777--7777----
--2222--------5555----------
[ Tab from: http://www.guitartabs.cc/tabs/m/myzell_chris/big_girls_blouse_tab.html ]
Riff2
-----------------------------------
----------7777-7----------9999-9---*Note riff 2 play
----------7777-7----------9999-9---4 times and then 
--4444-4--7777-7--7777-7--9999-9---play for verse!!!!
--4444-4--5555-5--7777-7--7777-7---
--2222-2----------5555-5-----------

Riff3 (Chorus)
------------------------------
------------------------------*Note riff 3 play
------------------------------for chorus then go
--7777--5555--3333--22-2------back to riff 2!!!!!!!!
--7777--5555--3333--22-2------
--5555--3333--1111--00-0------
That is it hope you like it Grace and Peace K E P
Comments