Mystic Roots Band - Smoke Out Chords & Tabs

 

Smoke Out Chords & Tabs

Mystic Roots Band Chords & Tabs

Version: 1 Type: Tab 0 ratings
1 star 2 stars 3 stars 4 stars 5 stars
comments

Smoke Out Tab

Mystic Roots Band
Smoke Out
Tabbed by devinquinn

This song features 3 different guitars with very similar parts. The parts that each 
plays, is played for the entire song. However, guitar 1 is the only guitar that plays in the 
of the song. Listen to the song to pick up strumming and picking speeds.

Guitar 1
[ Tab from: http://www.guitartabs.cc/tabs/m/mystic_roots_band/smoke_out_tab.html ]
E------------------3----|
B-3-----3----3--6-----6-|
G----5----5-------------|
D-----------------------|
A-----------------------|
E-----------------------|

Guitar 2

E-x---x-----x--|
B-x---x-----x--|
G-7--(12)--(10-|
D-7--(12)--(10-|
A-5--(10)---8--|
E-x---x-----x--|

Guitar 3

E---------------------------------------|
B---------------------------------------|
G---------------------------------------|
D---------------------------------------|
A-------8--------8--------------(10)--8-|
E-(10)-----(10)-----(10)--(10)----------|

There it is. Most of their stuff is pretty simple, but it still sounds great.
Comments