Myopic Son - Prodigal Chords & Tabs

 

Prodigal Chords & Tabs

Myopic Son Chords & Tabs

Version: 1 Type: Tab 0 ratings
1 star 2 stars 3 stars 4 stars 5 stars
comments

Prodigal Tab

   
Band:  Myopic Son
Song:  Prodigal
Album:  Prodigal

Song is in dropped-D tuning (D A D G B E)

Verse
E ----------------------------------------------------------------------|
B ----------------------------------------------------------------------|
G ----------------------------------------------------------------------|  
D ----------3---0----------------------------3---0---------2------------|    
A -------0---------1---0---1---1h3--------0----------2/3----------------|
D ----0--------------------------------0----------------------3---2-----|

E-----------------------------------------------------------------------|
B-----------------------------------------------------------------------|
G-----------------------------------------------------------------------|
D----------3---0----------------------------5---3---5/7---5-------------|
A-------0----------1---0---1---1h3-------3--------------------8---7-----|
D----0--------------------------------3---------------------------------|


Prechorus is just open D chord and then D#
          D          D#
E --------X----------X--------|
B --------3----------4--------|
G --------2----------3--------|
D --------0----------1--------|
A --------0----------1--------|
D --------0----------1--------|

[ Tab from: http://www.guitartabs.cc/tabs/m/myopic_son/prodigal_tab.html ]
Chorus
          D        C        Bb        F        D#
E --------X--------X--------X---------X--------X--------|
B --------3--------X--------X---------X--------X--------|
G --------2--------5--------3---------5--------3--------|
D --------0--------5--------3---------3--------1--------|
A --------0--------3--------1---------3--------1--------|
D --------0--------X--------X---------3--------1--------|






Bridge (Palm mute first half and then all out)
E ------------------------------------------------------------------------------------|
B ------------------------------------------------------------------------------------|
G ------------------------------------------------------------------------------------|
D -----------------------------------------------------5------0----0----1h3p1---------|
A ------------5------------5---3-------8----5----------5------0----0----1h3p1---------|
D ---0---5--------0---3------------0-------------0-----5------0----0----1h3p1---------|
 pm |-----------------------------------------------|         pm   pm


Verse
Prechorus
Chorus
Verse
Prechorus
Chorus
Bridge
Prechorus
Chorus

===================================================================
==                    TABLATURE EXPLANATION                      ==
===================================================================

----------                            ----------
----5h8--- Hammeron                   ----(8)--- Bent Note
----------                            ----------
----5p8--- Pulloff                    ----------

----------                            ----------
----5/8--- Slide Up                   -----x---- Dead Note
----------                            ----------
----5\8--- Slide Down                 ----------

----------                            ||------|| Repeat Start & End
----5~~~-- Vibrato                    ||*----*||
----------                            ||*----*||
----------                            ||------||
Comments